  0
SECTION
  2
HEADER
  9
$ACADVER
  1
AC1009
  9
$DWGCODEPAGE
  3
ansi_1252
  9
$INSBASE
 10
0.0
 20
0.0
 30
0.0
  9
$EXTMIN
 10
423.3018498554345
 20
-80.90978304471008
 30
0.0
  9
$EXTMAX
 10
1023.301849855435
 20
543.722213659752
 30
0.0
  9
$LIMMIN
 10
0.0
 20
0.0
  9
$LIMMAX
 10
12.0
 20
9.0
  9
$ORTHOMODE
 70
     0
  9
$REGENMODE
 70
     1
  9
$FILLMODE
 70
     1
  9
$QTEXTMODE
 70
     0
  9
$MIRRTEXT
 70
     0
  9
$DRAGMODE
 70
     2
  9
$LTSCALE
 40
1.0
  9
$OSMODE
 70
   511
  9
$ATTMODE
 70
     1
  9
$TEXTSIZE
 40
0.2
  9
$TRACEWID
 40
0.05
  9
$TEXTSTYLE
  7
STANDARD
  9
$CLAYER
  8
0
  9
$CELTYPE
  6
BYLAYER
  9
$CECOLOR
 62
   256
  9
$DIMSCALE
 40
1.0
  9
$DIMASZ
 40
0.18
  9
$DIMEXO
 40
0.0625
  9
$DIMDLI
 40
0.38
  9
$DIMRND
 40
0.0
  9
$DIMDLE
 40
0.0
  9
$DIMEXE
 40
0.18
  9
$DIMTP
 40
0.0
  9
$DIMTM
 40
0.0
  9
$DIMTXT
 40
0.18
  9
$DIMCEN
 40
0.09
  9
$DIMTSZ
 40
0.0
  9
$DIMTOL
 70
     0
  9
$DIMLIM
 70
     0
  9
$DIMTIH
 70
     1
  9
$DIMTOH
 70
     1
  9
$DIMSE1
 70
     0
  9
$DIMSE2
 70
     0
  9
$DIMTAD
 70
     0
  9
$DIMZIN
 70
     0
  9
$DIMBLK
  1

  9
$DIMASO
 70
     1
  9
$DIMSHO
 70
     1
  9
$DIMPOST
  1

  9
$DIMAPOST
  1

  9
$DIMALT
 70
     0
  9
$DIMALTD
 70
     2
  9
$DIMALTF
 40
25.4
  9
$DIMLFAC
 40
1.0
  9
$DIMTOFL
 70
     0
  9
$DIMTVP
 40
0.0
  9
$DIMTIX
 70
     0
  9
$DIMSOXD
 70
     0
  9
$DIMSAH
 70
     0
  9
$DIMBLK1
  1

  9
$DIMBLK2
  1

  9
$DIMSTYLE
  2
STANDARD
  9
$DIMCLRD
 70
     0
  9
$DIMCLRE
 70
     0
  9
$DIMCLRT
 70
     0
  9
$DIMTFAC
 40
1.0
  9
$DIMGAP
 40
0.09
  9
$LUNITS
 70
     2
  9
$LUPREC
 70
     4
  9
$SKETCHINC
 40
0.1
  9
$FILLETRAD
 40
5.0
  9
$AUNITS
 70
     0
  9
$AUPREC
 70
     0
  9
$MENU
  1
.
  9
$ELEVATION
 40
0.0
  9
$PELEVATION
 40
0.0
  9
$THICKNESS
 40
0.0
  9
$LIMCHECK
 70
     0
  9
$CHAMFERA
 40
0.0
  9
$CHAMFERB
 40
0.0
  9
$SKPOLY
 70
     0
  9
$TDCREATE
 40
2452642.855050937
  9
$TDUPDATE
 40
2457146.462233982
  9
$TDINDWG
 40
0.278546169
  9
$TDUSRTIMER
 40
2457146.651484317
  9
$USRTIMER
 70
     1
  9
$ANGBASE
 50
0.0
  9
$ANGDIR
 70
     0
  9
$PDMODE
 70
     0
  9
$PDSIZE
 40
0.0
  9
$PLINEWID
 40
0.0
  9
$COORDS
 70
     1
  9
$SPLFRAME
 70
     0
  9
$SPLINETYPE
 70
     6
  9
$SPLINESEGS
 70
     8
  9
$ATTDIA
 70
     0
  9
$ATTREQ
 70
     1
  9
$HANDLING
 70
     1
  9
$HANDSEED
  5
2509
  9
$SURFTAB1
 70
     6
  9
$SURFTAB2
 70
     6
  9
$SURFTYPE
 70
     6
  9
$SURFU
 70
     6
  9
$SURFV
 70
     6
  9
$UCSNAME
  2

  9
$UCSORG
 10
0.0
 20
0.0
 30
0.0
  9
$UCSXDIR
 10
1.0
 20
0.0
 30
0.0
  9
$UCSYDIR
 10
0.0
 20
1.0
 30
0.0
  9
$PUCSNAME
  2

  9
$PUCSORG
 10
0.0
 20
0.0
 30
0.0
  9
$PUCSXDIR
 10
1.0
 20
0.0
 30
0.0
  9
$PUCSYDIR
 10
0.0
 20
1.0
 30
0.0
  9
$USERI1
 70
     0
  9
$USERI2
 70
     0
  9
$USERI3
 70
     0
  9
$USERI4
 70
     0
  9
$USERI5
 70
     0
  9
$USERR1
 40
0.0
  9
$USERR2
 40
0.0
  9
$USERR3
 40
0.0
  9
$USERR4
 40
0.0
  9
$USERR5
 40
0.0
  9
$WORLDVIEW
 70
     1
  9
$SHADEDGE
 70
     3
  9
$SHADEDIF
 70
    70
  9
$TILEMODE
 70
     1
  9
$MAXACTVP
 70
    64
  9
$PLIMCHECK
 70
     0
  9
$PEXTMIN
 10
1.05
 20
0.6999999999999997
 30
0.0
  9
$PEXTMAX
 10
9.45
 20
6.300000000000001
 30
0.0
  9
$PLIMMIN
 10
-0.25
 20
-0.7499999999999999
  9
$PLIMMAX
 10
10.75
 20
7.75
  9
$UNITMODE
 70
     0
  9
$VISRETAIN
 70
     1
  9
$PLINEGEN
 70
     0
  9
$PSLTSCALE
 70
     1
  0
ENDSEC
  0
SECTION
  2
TABLES
  0
TABLE
  2
VPORT
 70
     1
  0
VPORT
  2
*ACTIVE
 70
     0
 10
0.0
 20
0.0
 11
1.0
 21
1.0
 12
1994.99977192636
 22
-156.1501299032379
 13
0.0
 23
0.0
 14
0.5
 24
0.5
 15
0.5
 25
0.5
 16
0.0
 26
0.0
 36
1.0
 17
-27.66959356598591
 27
-19.53870295786317
 37
0.0
 40
2236.817922428387
 41
2.238970588235294
 42
50.0
 43
0.0
 44
0.0
 50
0.0
 51
0.0
 71
    16
 72
  1000
 73
     1
 74
     3
 75
     0
 76
     0
 77
     0
 78
     0
  0
ENDTAB
  0
TABLE
  2
LTYPE
 70
     1
  0
LTYPE
  2
CONTINUOUS
 70
     0
  3
Solid line
 72
    65
 73
     0
 40
0.0
  0
ENDTAB
  0
TABLE
  2
LAYER
 70
     4
  0
LAYER
  2
0
 70
     0
 62
     7
  6
CONTINUOUS
  0
LAYER
  2
DEFPOINTS
 70
     0
 62
     7
  6
CONTINUOUS
  0
LAYER
  2
HOLES
 70
     0
 62
     1
  6
CONTINUOUS
  0
LAYER
  2
RASTER
 70
     0
 62
     5
  6
CONTINUOUS
  0
ENDTAB
  0
TABLE
  2
STYLE
 70
     1
  0
STYLE
  2
STANDARD
 70
     0
 40
0.0
 41
1.0
 50
0.0
 71
     0
 42
0.2
  3
arial.ttf
  4

  0
ENDTAB
  0
TABLE
  2
VIEW
 70
     0
  0
ENDTAB
  0
TABLE
  2
UCS
 70
     0
  0
ENDTAB
  0
TABLE
  2
APPID
 70
     3
  0
APPID
  2
ACAD
 70
     0
  0
APPID
  2
ACAECLAYERSTANDARD
 70
     0
  0
APPID
  2
ACAD_MLEADERVER
 70
     0
  0
ENDTAB
  0
TABLE
  2
DIMSTYLE
 70
     1
  0
DIMSTYLE
  2
STANDARD
 70
     0
  3

  4

  5

  6

  7

 40
1.0
 41
0.18
 42
0.0625
 43
0.38
 44
0.18
 45
0.0
 46
0.0
 47
0.0
 48
0.0
140
0.18
141
0.09
142
0.0
143
25.4
144
1.0
145
0.0
146
1.0
147
0.09
 71
     0
 72
     0
 73
     1
 74
     1
 75
     0
 76
     0
 77
     0
 78
     0
170
     0
171
     2
172
     0
173
     0
174
     0
175
     0
176
     0
177
     0
178
     0
  0
ENDTAB
  0
ENDSEC
  0
SECTION
  2
BLOCKS
  0
BLOCK
  8
0
  2
$MODEL_SPACE
 70
     0
 10
0.0
 20
0.0
 30
0.0
  3
$MODEL_SPACE
  1

  0
ENDBLK
  5
21
  8
0
  0
BLOCK
 67
     1
  8
0
  2
$PAPER_SPACE
 70
     0
 10
0.0
 20
0.0
 30
0.0
  3
$PAPER_SPACE
  1

  0
ENDBLK
  5
5B
 67
     1
  8
0
  0
BLOCK
  8
0
  2
*X1
 70
     1
 10
0.0
 20
0.0
 30
0.0
  3
*X1
  1

  0
ENDBLK
  5
24E0
  8
0
  0
BLOCK
  8
0
  2
*X2
 70
     1
 10
0.0
 20
0.0
 30
0.0
  3
*X2
  1

  0
ENDBLK
  5
24E2
  8
0
  0
ENDSEC
  0
SECTION
  2
ENTITIES
  0
LINE
  5
6E1
  8
0
 10
423.3018498554345
 20
543.722213659752
 30
0.0
 11
423.3018498554345
 21
243.722213659752
 31
0.0
  0
LINE
  5
6E3
  8
0
 10
1023.301849855435
 20
543.722213659752
 30
0.0
 11
423.3018498554345
 21
543.722213659752
 31
0.0
  0
LINE
  5
6E4
  8
0
 10
1023.301849855435
 20
243.722213659752
 30
0.0
 11
423.3018498554345
 21
243.722213659752
 31
0.0
  0
LINE
  5
6E5
  8
0
 10
1023.301849855435
 20
543.722213659752
 30
0.0
 11
1023.301849855435
 21
243.722213659752
 31
0.0
  0
LINE
  5
973
  8
0
 10
1023.301849855435
 20
219.0902169552899
 30
0.0
 11
423.3018498554345
 21
219.0902169552899
 31
0.0
  0
LINE
  5
974
  8
0
 10
423.3018498554345
 20
219.0902169552899
 30
0.0
 11
423.3018498554345
 21
-80.90978304471008
 31
0.0
  0
LINE
  5
975
  8
0
 10
1023.301849855435
 20
-80.90978304471008
 30
0.0
 11
423.3018498554345
 21
-80.90978304471008
 31
0.0
  0
LINE
  5
976
  8
0
 10
1023.301849855435
 20
219.0902169552899
 30
0.0
 11
1023.301849855435
 21
-80.90978304471008
 31
0.0
  0
CIRCLE
  5
21CD
  8
HOLES
 10
500.9571426204761
 20
369.7721783728655
 30
0.0
 40
13.0
  0
CIRCLE
  5
21CE
  8
HOLES
 10
536.9571426204761
 20
369.7721783728655
 30
0.0
 40
13.0
  0
CIRCLE
  5
21CF
  8
HOLES
 10
572.9571426204761
 20
369.7721783728655
 30
0.0
 40
13.0
  0
CIRCLE
  5
21D0
  8
HOLES
 10
644.9571426204764
 20
369.7721783728655
 30
0.0
 40
13.0
  0
CIRCLE
  5
21D1
  8
HOLES
 10
680.9571426204764
 20
369.7721783728655
 30
0.0
 40
13.0
  0
CIRCLE
  5
21D2
  8
HOLES
 10
716.9571426204764
 20
369.7721783728655
 30
0.0
 40
13.0
  0
CIRCLE
  5
21D3
  8
HOLES
 10
518.9571426204761
 20
400.9624405796907
 30
0.0
 40
13.0
  0
CIRCLE
  5
21D4
  8
HOLES
 10
554.9571426204761
 20
400.9624405796907
 30
0.0
 40
13.0
  0
CIRCLE
  5
21D5
  8
HOLES
 10
590.9571426204761
 20
400.9624405796907
 30
0.0
 40
13.0
  0
CIRCLE
  5
21D6
  8
HOLES
 10
662.9571426204764
 20
400.9624405796907
 30
0.0
 40
13.0
  0
CIRCLE
  5
21D7
  8
HOLES
 10
698.9571426204764
 20
400.9624405796907
 30
0.0
 40
13.0
  0
CIRCLE
  5
21D8
  8
HOLES
 10
734.9571426204764
 20
400.9624405796907
 30
0.0
 40
13.0
  0
CIRCLE
  5
21D9
  8
HOLES
 10
500.9571426204761
 20
436.9740006199125
 30
0.0
 40
13.0
  0
CIRCLE
  5
21DA
  8
HOLES
 10
536.9571426204761
 20
436.9740006199125
 30
0.0
 40
13.0
  0
CIRCLE
  5
21DB
  8
HOLES
 10
572.9571426204761
 20
436.9740006199125
 30
0.0
 40
13.0
  0
CIRCLE
  5
21DC
  8
HOLES
 10
644.9571426204764
 20
436.9740006199125
 30
0.0
 40
13.0
  0
CIRCLE
  5
21DD
  8
HOLES
 10
680.9571426204764
 20
436.9740006199125
 30
0.0
 40
13.0
  0
CIRCLE
  5
21DE
  8
HOLES
 10
716.9571426204764
 20
436.9740006199125
 30
0.0
 40
13.0
  0
CIRCLE
  5
21DF
  8
HOLES
 10
482.9571426204761
 20
400.9624405796907
 30
0.0
 40
13.0
  0
CIRCLE
  5
21E0
  8
HOLES
 10
518.9571426204761
 20
472.9855606601344
 30
0.0
 40
13.0
  0
CIRCLE
  5
21E1
  8
HOLES
 10
554.9571426204761
 20
472.9855606601344
 30
0.0
 40
13.0
  0
CIRCLE
  5
21E2
  8
HOLES
 10
590.9571426204761
 20
472.9855606601344
 30
0.0
 40
13.0
  0
CIRCLE
  5
21E3
  8
HOLES
 10
662.9571426204764
 20
472.9855606601344
 30
0.0
 40
13.0
  0
CIRCLE
  5
21E4
  8
HOLES
 10
698.9571426204764
 20
472.9855606601344
 30
0.0
 40
13.0
  0
CIRCLE
  5
21E5
  8
HOLES
 10
734.9571426204764
 20
472.9855606601344
 30
0.0
 40
13.0
  0
CIRCLE
  5
21E6
  8
HOLES
 10
482.9571426204761
 20
472.9855606601344
 30
0.0
 40
13.0
  0
LINE
  5
21E7
  8
0
 10
484.9571426204761
 20
346.7721783728655
 30
0.0
 11
732.9571426204764
 21
346.7721783728655
 31
0.0
  0
ARC
  5
21E8
  8
0
 10
484.9571426204761
 20
371.7721783728655
 30
0.0
 40
25.0
 50
180.0
 51
270.0
  0
ARC
  5
21E9
  8
0
 10
732.9571426204764
 20
371.7721783728655
 30
0.0
 40
25.0
 50
270.0
 51
0.0
  0
LINE
  5
21EA
  8
0
 10
429.2979703117589
 20
467.6117981256371
 30
0.0
 11
448.7409242520255
 21
459.421579771418
 31
0.0
  0
LINE
  5
21EB
  8
0
 10
439.0194472818923
 20
463.5166889485276
 30
0.0
 11
456.898174726716
 21
455.9853908691027
 31
0.0
  0
LINE
  5
21EC
  8
0
 10
424.5824339049466
 20
477.8628078017599
 30
0.0
 11
424.5824339049466
 21
513.8628078017599
 31
0.0
  0
ARC
  5
21ED
  8
0
 10
438.0824339049466
 20
477.8628078017599
 30
0.0
 40
13.5
 50
180.0
 51
229.4055243382311
  0
ARC
  5
21EE
  8
0
 10
438.0824339049466
 20
513.8628078017599
 30
0.0
 40
13.5
 50
102.8045464514591
 51
180.0
  0
LINE
  5
21EF
  8
0
 10
435.0904845849298
 20
527.0270867135139
 30
0.0
 11
477.204202073232
 21
540.7645756097675
 31
0.0
  0
ARC
  5
21F0
  8
0
 10
484.9571426204761
 20
516.9971207003563
 30
0.0
 40
25.0
 50
90.0
 51
108.0663190725432
  0
LINE
  5
21F1
  8
0
 10
439.0194472818921
 20
463.5166889485276
 30
0.0
 11
456.8981747267158
 21
455.9853908691027
 31
0.0
  0
ARC
  5
21F2
  8
0
 10
454.9571426204761
 20
451.3775286356427
 30
0.0
 40
5.000000000000002
 50
0.0
 51
67.15705636114964
  0
LINE
  5
21F3
  8
0
 10
788.6163149291935
 20
467.6117981256371
 30
0.0
 11
769.1733609889268
 21
459.421579771418
 31
0.0
  0
LINE
  5
21F4
  8
0
 10
778.8948379590602
 20
463.5166889485276
 30
0.0
 11
761.0161105142365
 21
455.9853908691027
 31
0.0
  0
LINE
  5
21F5
  8
0
 10
793.3318513360059
 20
477.8628078017599
 30
0.0
 11
793.3318513360059
 21
513.8628078017599
 31
0.0
  0
ARC
  5
21F6
  8
0
 10
779.8318513360059
 20
477.8628078017599
 30
0.0
 40
13.5
 50
310.594475661769
 51
0.0
  0
ARC
  5
21F7
  8
0
 10
779.8318513360057
 20
513.8628078017599
 30
0.0
 40
13.5
 50
0.0
 51
77.19545354854095
  0
LINE
  5
21F8
  8
0
 10
782.8238006560225
 20
527.0270867135139
 30
0.0
 11
740.7100831677205
 21
540.7645756097675
 31
0.0
  0
LINE
  5
21F9
  8
0
 10
778.8948379590604
 20
463.5166889485276
 30
0.0
 11
761.0161105142365
 21
455.9853908691027
 31
0.0
  0
ARC
  5
21FA
  8
0
 10
762.9571426204764
 20
451.3775286356427
 30
0.0
 40
5.000000000000002
 50
112.8429436388533
 51
180.0
  0
ARC
  5
21FB
  8
0
 10
732.9571426204764
 20
516.9971207003563
 30
0.0
 40
25.0
 50
71.93368092745679
 51
90.00000000000053
  0
CIRCLE
  5
21FC
  8
HOLES
 10
626.9571426204761
 20
472.9855606601344
 30
0.0
 40
13.0
  0
CIRCLE
  5
21FD
  8
HOLES
 10
608.9571426204761
 20
436.9740006199125
 30
0.0
 40
13.0
  0
CIRCLE
  5
21FE
  8
HOLES
 10
626.9571426204761
 20
400.9624405796907
 30
0.0
 40
13.0
  0
CIRCLE
  5
21FF
  8
HOLES
 10
608.9571426204761
 20
369.7721783728655
 30
0.0
 40
13.0
  0
CIRCLE
  5
2200
  8
HOLES
 10
499.0404685181315
 20
513.9971207003562
 30
0.0
 40
18.0
  0
CIRCLE
  5
2201
  8
HOLES
 10
554.0404685181315
 20
513.9971207003562
 30
0.0
 40
18.0
  0
CIRCLE
  5
2202
  8
HOLES
 10
608.9571426204761
 20
513.9971207003562
 30
0.0
 40
18.0
  0
CIRCLE
  5
2203
  8
HOLES
 10
663.8738167228207
 20
513.9971207003562
 30
0.0
 40
18.0
  0
CIRCLE
  5
2204
  8
HOLES
 10
718.8738167228207
 20
513.9971207003562
 30
0.0
 40
18.0
  0
CIRCLE
  5
2205
  8
RASTER
 10
453.9817109388728
 20
507.8628078017599
 30
0.0
 40
3.5
  0
CIRCLE
  5
2206
  8
RASTER
 10
453.9817109388728
 20
495.8628078017599
 30
0.0
 40
3.5
  0
CIRCLE
  5
2207
  8
RASTER
 10
453.9817109388728
 20
519.8628078017599
 30
0.0
 40
3.5
  0
CIRCLE
  5
2208
  8
RASTER
 10
438.0824339049466
 20
513.8628078017599
 30
0.0
 40
3.5
  0
CIRCLE
  5
2209
  8
RASTER
 10
438.0824339049466
 20
501.8628078017599
 30
0.0
 40
3.5
  0
CIRCLE
  5
220A
  8
RASTER
 10
438.0824339049466
 20
489.8628078017599
 30
0.0
 40
3.5
  0
CIRCLE
  5
220B
  8
RASTER
 10
438.0824339049466
 20
477.8628078017599
 30
0.0
 40
3.5
  0
CIRCLE
  5
220C
  8
RASTER
 10
453.9817109388728
 20
483.8628078017599
 30
0.0
 40
3.5
  0
CIRCLE
  5
220D
  8
RASTER
 10
453.9817109388728
 20
471.8628078017599
 30
0.0
 40
3.5
  0
CIRCLE
  5
220E
  8
RASTER
 10
767.9325743020795
 20
519.8628078017599
 30
0.0
 40
4.5
  0
CIRCLE
  5
220F
  8
RASTER
 10
767.9325743020795
 20
507.8628078017599
 30
0.0
 40
4.5
  0
CIRCLE
  5
2210
  8
RASTER
 10
767.9325743020795
 20
495.8628078017599
 30
0.0
 40
4.5
  0
CIRCLE
  5
2211
  8
RASTER
 10
767.9325743020795
 20
483.8628078017599
 30
0.0
 40
4.5
  0
CIRCLE
  5
2212
  8
RASTER
 10
767.9325743020795
 20
471.8628078017599
 30
0.0
 40
4.5
  0
CIRCLE
  5
2213
  8
RASTER
 10
783.8318513360057
 20
477.8628078017599
 30
0.0
 40
4.5
  0
CIRCLE
  5
2214
  8
RASTER
 10
783.8318513360057
 20
489.8628078017599
 30
0.0
 40
4.5
  0
CIRCLE
  5
2215
  8
RASTER
 10
783.8318513360057
 20
501.8628078017599
 30
0.0
 40
4.5
  0
CIRCLE
  5
2216
  8
RASTER
 10
783.8318513360057
 20
513.8628078017599
 30
0.0
 40
4.5
  0
INSERT
  5
2217
  8
0
  2
*X1
 10
0.0
 20
0.0
 30
0.0
  0
INSERT
  5
2218
  8
0
  2
*X2
 10
0.0
 20
0.0
 30
0.0
  0
LINE
  5
2219
  8
0
 10
461.9571426204761
 20
440.0740006199126
 30
0.0
 11
459.9571426204761
 21
440.0740006199126
 31
0.0
  0
LINE
  5
221A
  8
0
 10
461.9571426204761
 20
433.8740006199125
 30
0.0
 11
459.9571426204761
 21
433.8740006199125
 31
0.0
  0
LINE
  5
221B
  8
0
 10
461.9571426204761
 20
433.8740006199125
 30
0.0
 11
461.9571426204761
 21
440.0740006199126
 31
0.0
  0
LINE
  5
221C
  8
0
 10
755.9571426204761
 20
433.8740006199125
 30
0.0
 11
757.9571426204761
 21
433.8740006199125
 31
0.0
  0
LINE
  5
221D
  8
0
 10
755.9571426204761
 20
440.0740006199126
 30
0.0
 11
757.9571426204761
 21
440.0740006199126
 31
0.0
  0
LINE
  5
221E
  8
0
 10
755.9571426204761
 20
433.8740006199125
 30
0.0
 11
755.9571426204761
 21
440.0740006199126
 31
0.0
  0
LINE
  5
221F
  8
0
 10
757.9571426204764
 20
440.0740006199126
 30
0.0
 11
757.9571426204764
 21
451.3775286356427
 31
0.0
  0
LINE
  5
2220
  8
0
 10
757.9571426204764
 20
440.0740006199126
 30
0.0
 11
757.9571426204764
 21
451.3775286356427
 31
0.0
  0
LINE
  5
2221
  8
0
 10
757.9571426204764
 20
371.7721783728655
 30
0.0
 11
757.9571426204764
 21
433.8740006199125
 31
0.0
  0
LINE
  5
2222
  8
0
 10
459.9571426204761
 20
440.0740006199126
 30
0.0
 11
459.9571426204761
 21
451.3775286356427
 31
0.0
  0
LINE
  5
2223
  8
0
 10
757.9571426204764
 20
402.1269439218579
 30
0.0
 11
757.9571426204764
 21
433.8740006199125
 31
0.0
  0
LINE
  5
2224
  8
0
 10
459.9571426204761
 20
440.0740006199126
 30
0.0
 11
459.9571426204761
 21
451.3775286356427
 31
0.0
  0
LINE
  5
2225
  8
0
 10
459.9571426204761
 20
402.1269439218579
 30
0.0
 11
459.9571426204761
 21
433.8740006199125
 31
0.0
  0
LINE
  5
2226
  8
0
 10
459.9571426204761
 20
371.7721783728655
 30
0.0
 11
459.9571426204761
 21
433.8740006199125
 31
0.0
  0
LINE
  5
2227
  8
0
 10
523.4404685181316
 20
541.9971207003563
 30
0.0
 11
523.4404685181316
 21
539.9971207003563
 31
0.0
  0
LINE
  5
2228
  8
0
 10
529.6404685181315
 20
539.9971207003563
 30
0.0
 11
523.4404685181316
 21
539.9971207003563
 31
0.0
  0
LINE
  5
2229
  8
0
 10
529.6404685181315
 20
541.9971207003563
 30
0.0
 11
529.6404685181315
 21
539.9971207003563
 31
0.0
  0
LINE
  5
222A
  8
0
 10
694.4738167228206
 20
539.9971207003563
 30
0.0
 11
688.2738167228208
 21
539.9971207003563
 31
0.0
  0
LINE
  5
222B
  8
0
 10
688.2738167228208
 20
541.9971207003563
 30
0.0
 11
688.2738167228208
 21
539.9971207003563
 31
0.0
  0
LINE
  5
222C
  8
0
 10
694.4738167228206
 20
541.9971207003563
 30
0.0
 11
694.4738167228206
 21
539.9971207003563
 31
0.0
  0
LINE
  5
222D
  8
0
 10
484.9571426204761
 20
541.9971207003563
 30
0.0
 11
523.4404685181316
 21
541.9971207003563
 31
0.0
  0
LINE
  5
222E
  8
0
 10
694.4738167228206
 20
541.9971207003563
 30
0.0
 11
732.9571426204764
 21
541.9971207003563
 31
0.0
  0
LINE
  5
222F
  8
0
 10
529.6404685181315
 20
541.9971207003563
 30
0.0
 11
688.2738167228208
 21
541.9971207003563
 31
0.0
  0
POLYLINE
  5
2230
  8
HOLES
 66
     1
 10
0.0
 20
0.0
 30
0.0
 70
     1
  0
VERTEX
  5
2479
  8
HOLES
 10
477.5571426204763
 20
439.8740006199126
 30
0.0
  0
VERTEX
  5
247A
  8
HOLES
 10
477.5571426204763
 20
434.0740006199126
 30
0.0
  0
VERTEX
  5
247B
  8
HOLES
 10
483.857142620476
 20
434.0740006199126
 30
0.0
  0
VERTEX
  5
247C
  8
HOLES
 10
483.857142620476
 20
439.8740006199126
 30
0.0
  0
SEQEND
  5
24E3
  8
HOLES
  0
POLYLINE
  5
2231
  8
HOLES
 66
     1
 10
0.0
 20
0.0
 30
0.0
 70
     1
  0
VERTEX
  5
247D
  8
HOLES
 10
529.4404685181314
 20
524.3971207003561
 30
0.0
  0
VERTEX
  5
247E
  8
HOLES
 10
523.6404685181317
 20
524.3971207003561
 30
0.0
  0
VERTEX
  5
247F
  8
HOLES
 10
523.6404685181317
 20
518.0971207003564
 30
0.0
  0
VERTEX
  5
2480
  8
HOLES
 10
529.4404685181314
 20
518.0971207003564
 30
0.0
  0
SEQEND
  5
24E4
  8
HOLES
  0
POLYLINE
  5
2232
  8
HOLES
 66
     1
 10
0.0
 20
0.0
 30
0.0
 70
     1
  0
VERTEX
  5
2481
  8
HOLES
 10
688.4738167228209
 20
524.3971207003561
 30
0.0
  0
VERTEX
  5
2482
  8
HOLES
 10
694.2738167228206
 20
524.3971207003561
 30
0.0
  0
VERTEX
  5
2483
  8
HOLES
 10
694.2738167228206
 20
518.0971207003564
 30
0.0
  0
VERTEX
  5
2484
  8
HOLES
 10
688.4738167228209
 20
518.0971207003564
 30
0.0
  0
SEQEND
  5
24E5
  8
HOLES
  0
POLYLINE
  5
2233
  8
HOLES
 66
     1
 10
0.0
 20
0.0
 30
0.0
 70
     1
  0
VERTEX
  5
2485
  8
HOLES
 10
740.357142620476
 20
439.8740006199126
 30
0.0
  0
VERTEX
  5
2486
  8
HOLES
 10
740.357142620476
 20
434.0740006199125
 30
0.0
  0
VERTEX
  5
2487
  8
HOLES
 10
734.0571426204763
 20
434.0740006199125
 30
0.0
  0
VERTEX
  5
2488
  8
HOLES
 10
734.0571426204763
 20
439.8740006199126
 30
0.0
  0
SEQEND
  5
24E6
  8
HOLES
  0
CIRCLE
  5
2234
  8
HOLES
 10
994.899257725739
 20
285.7784835416795
 30
0.0
 40
13.0
  0
CIRCLE
  5
2235
  8
HOLES
 10
994.899257725739
 20
501.7784835416796
 30
0.0
 40
13.0
  0
CIRCLE
  5
2236
  8
HOLES
 10
963.7089955189139
 20
303.7784835416795
 30
0.0
 40
13.0
  0
CIRCLE
  5
2237
  8
HOLES
 10
963.7089955189139
 20
483.7784835416796
 30
0.0
 40
13.0
  0
CIRCLE
  5
2238
  8
HOLES
 10
963.708995518914
 20
519.7784835416796
 30
0.0
 40
13.0
  0
CIRCLE
  5
2239
  8
HOLES
 10
927.697435478692
 20
285.7784835416795
 30
0.0
 40
13.0
  0
CIRCLE
  5
223A
  8
HOLES
 10
927.697435478692
 20
321.7784835416795
 30
0.0
 40
13.0
  0
CIRCLE
  5
223B
  8
HOLES
 10
927.697435478692
 20
357.7784835416795
 30
0.0
 40
13.0
  0
CIRCLE
  5
223C
  8
HOLES
 10
927.697435478692
 20
429.7784835416795
 30
0.0
 40
13.0
  0
CIRCLE
  5
223D
  8
HOLES
 10
927.697435478692
 20
465.7784835416796
 30
0.0
 40
13.0
  0
CIRCLE
  5
223E
  8
HOLES
 10
927.697435478692
 20
501.7784835416796
 30
0.0
 40
13.0
  0
CIRCLE
  5
223F
  8
HOLES
 10
963.7089955189139
 20
267.7784835416795
 30
0.0
 40
13.0
  0
CIRCLE
  5
2240
  8
HOLES
 10
891.6858754384701
 20
303.7784835416795
 30
0.0
 40
13.0
  0
CIRCLE
  5
2241
  8
HOLES
 10
891.6858754384701
 20
339.7784835416795
 30
0.0
 40
13.0
  0
CIRCLE
  5
2242
  8
HOLES
 10
891.6858754384701
 20
411.7784835416795
 30
0.0
 40
13.0
  0
CIRCLE
  5
2243
  8
HOLES
 10
891.6858754384701
 20
447.7784835416796
 30
0.0
 40
13.0
  0
CIRCLE
  5
2244
  8
HOLES
 10
891.6858754384701
 20
483.7784835416796
 30
0.0
 40
13.0
  0
CIRCLE
  5
2245
  8
HOLES
 10
891.6858754384702
 20
519.7784835416796
 30
0.0
 40
13.0
  0
CIRCLE
  5
2246
  8
HOLES
 10
891.6858754384701
 20
267.7784835416795
 30
0.0
 40
13.0
  0
LINE
  5
2247
  8
0
 10
964.7536671960792
 20
245.2930018803685
 30
0.0
 11
1005.061462814669
 21
265.145267899649
 31
0.0
  0
LINE
  5
2248
  8
0
 10
951.4767184020652
 20
355.9218444799609
 30
0.0
 11
962.2616118609542
 21
330.2268704574718
 31
0.0
  0
LINE
  5
2249
  8
0
 10
967.0639788989158
 20
325.1260979044122
 30
0.0
 11
1005.061462814669
 21
306.4116991837101
 31
0.0
  0
ARC
  5
224A
  8
0
 10
994.899257725739
 20
285.7784835416795
 30
0.0
 40
23.0
 50
296.2210203335761
 51
63.77897966642391
  0
LINE
  5
224B
  8
0
 10
950.697435478692
 20
359.7920352495231
 30
0.0
 11
950.697435478692
 21
427.7649318338357
 31
0.0
  0
ARC
  5
224C
  8
0
 10
971.4823289375809
 20
334.097061227034
 30
0.0
 40
9.999999999999993
 50
202.7691443569475
 51
243.7789796664229
  0
ARC
  5
224D
  8
0
 10
960.6974354786919
 20
359.7920352495231
 30
0.0
 40
9.99999999999996
 50
180.0
 51
202.7691443569475
  0
ARC
  5
224E
  8
0
 10
962.5444921767465
 20
249.7784835416795
 30
0.0
 40
4.999999999999981
 50
270.0
 51
296.2210203335777
  0
LINE
  5
224F
  8
0
 10
964.7536671960793
 20
542.2639652029907
 30
0.0
 11
1005.061462814669
 21
522.41169918371
 31
0.0
  0
ARC
  5
2250
  8
0
 10
962.5444921767466
 20
537.7784835416796
 30
0.0
 40
4.999999999999981
 50
63.77897966642294
 51
90.0
  0
ARC
  5
2251
  8
0
 10
994.899257725739
 20
501.7784835416796
 30
0.0
 40
23.0
 50
296.2210203335758
 51
63.7789796664234
  0
LINE
  5
2252
  8
0
 10
951.4767184020652
 20
431.6351226033979
 30
0.0
 11
962.2616118609542
 21
457.3300966258871
 31
0.0
  0
LINE
  5
2253
  8
0
 10
967.0639788989158
 20
462.430869178947
 30
0.0
 11
1005.061462814669
 21
481.1452678996488
 31
0.0
  0
ARC
  5
2254
  8
0
 10
971.4823289375809
 20
453.4599058563249
 30
0.0
 40
9.999999999999993
 50
116.2210203335753
 51
157.2308556430525
  0
ARC
  5
2255
  8
0
 10
960.6974354786919
 20
427.7649318338357
 30
0.0
 40
9.99999999999996
 50
157.2308556430525
 51
180.0
  0
ARC
  5
2256
  8
0
 10
847.6743153982484
 20
517.7784835416796
 30
0.0
 40
25.0
 50
90.0
 51
180.0
  0
ARC
  5
2257
  8
0
 10
847.6743153982483
 20
269.7784835416796
 30
0.0
 40
25.0
 50
180.0
 51
270.0
  0
CIRCLE
  5
2258
  8
HOLES
 10
850.6743153982483
 20
283.861809439335
 30
0.0
 40
18.0
  0
CIRCLE
  5
2259
  8
HOLES
 10
891.6858754384701
 20
375.7784835416795
 30
0.0
 40
13.0
  0
CIRCLE
  5
225A
  8
HOLES
 10
927.697435478692
 20
393.7784835416795
 30
0.0
 40
13.0
  0
CIRCLE
  5
225B
  8
HOLES
 10
850.6743153982483
 20
503.6951576440242
 30
0.0
 40
18.0
  0
CIRCLE
  5
225C
  8
HOLES
 10
850.6743153982483
 20
338.861809439335
 30
0.0
 40
18.0
  0
CIRCLE
  5
225D
  8
HOLES
 10
850.6743153982483
 20
448.6951576440242
 30
0.0
 40
18.0
  0
CIRCLE
  5
225E
  8
HOLES
 10
850.6743153982483
 20
393.7784835416796
 30
0.0
 40
18.0
  0
LINE
  5
225F
  8
0
 10
924.597435478692
 20
246.7784835416795
 30
0.0
 11
924.597435478692
 21
244.7784835416795
 31
0.0
  0
LINE
  5
2260
  8
0
 10
930.797435478692
 20
246.7784835416795
 30
0.0
 11
930.797435478692
 21
244.7784835416795
 31
0.0
  0
LINE
  5
2261
  8
0
 10
930.797435478692
 20
246.7784835416795
 30
0.0
 11
924.597435478692
 21
246.7784835416795
 31
0.0
  0
LINE
  5
2262
  8
0
 10
930.7974354786921
 20
540.7784835416796
 30
0.0
 11
930.7974354786921
 21
542.7784835416796
 31
0.0
  0
LINE
  5
2263
  8
0
 10
924.5974354786921
 20
540.7784835416796
 30
0.0
 11
924.5974354786921
 21
542.7784835416796
 31
0.0
  0
LINE
  5
2264
  8
0
 10
930.7974354786921
 20
540.7784835416796
 30
0.0
 11
924.5974354786921
 21
540.7784835416796
 31
0.0
  0
LINE
  5
2265
  8
0
 10
924.597435478692
 20
244.7784835416795
 30
0.0
 11
847.6743153982483
 21
244.7784835416796
 31
0.0
  0
LINE
  5
2266
  8
0
 10
962.5444921767465
 20
244.7784835416795
 30
0.0
 11
930.797435478692
 21
244.7784835416795
 31
0.0
  0
LINE
  5
2267
  8
0
 10
924.597435478692
 20
244.7784835416795
 30
0.0
 11
913.2939074629618
 21
244.7784835416795
 31
0.0
  0
LINE
  5
2268
  8
0
 10
962.5444921767465
 20
244.7784835416795
 30
0.0
 11
930.797435478692
 21
244.7784835416795
 31
0.0
  0
LINE
  5
2269
  8
0
 10
924.5974354786921
 20
542.7784835416796
 30
0.0
 11
847.6743153982484
 21
542.7784835416796
 31
0.0
  0
LINE
  5
226A
  8
0
 10
962.5444921767466
 20
542.7784835416796
 30
0.0
 11
930.7974354786921
 21
542.7784835416796
 31
0.0
  0
LINE
  5
226B
  8
0
 10
924.5974354786921
 20
542.7784835416796
 30
0.0
 11
913.2939074629619
 21
542.7784835416796
 31
0.0
  0
LINE
  5
226C
  8
0
 10
962.5444921767466
 20
542.7784835416796
 30
0.0
 11
930.7974354786921
 21
542.7784835416796
 31
0.0
  0
LINE
  5
226D
  8
0
 10
822.6743153982483
 20
308.2618094393351
 30
0.0
 11
824.6743153982483
 21
308.2618094393351
 31
0.0
  0
LINE
  5
226E
  8
0
 10
824.6743153982483
 20
314.461809439335
 30
0.0
 11
824.6743153982483
 21
308.2618094393351
 31
0.0
  0
LINE
  5
226F
  8
0
 10
822.6743153982483
 20
314.461809439335
 30
0.0
 11
824.6743153982483
 21
314.461809439335
 31
0.0
  0
LINE
  5
2270
  8
0
 10
824.6743153982483
 20
479.2951576440241
 30
0.0
 11
824.6743153982483
 21
473.0951576440243
 31
0.0
  0
LINE
  5
2271
  8
0
 10
822.6743153982483
 20
473.0951576440243
 30
0.0
 11
824.6743153982483
 21
473.0951576440243
 31
0.0
  0
LINE
  5
2272
  8
0
 10
822.6743153982483
 20
479.2951576440241
 30
0.0
 11
824.6743153982483
 21
479.2951576440241
 31
0.0
  0
LINE
  5
2273
  8
0
 10
822.6743153982483
 20
308.2618094393351
 30
0.0
 11
822.6743153982483
 21
269.7784835416796
 31
0.0
  0
LINE
  5
2274
  8
0
 10
822.6743153982483
 20
473.0951576440243
 30
0.0
 11
822.6743153982483
 21
314.461809439335
 31
0.0
  0
LINE
  5
2275
  8
0
 10
822.6743153982484
 20
517.7784835416796
 30
0.0
 11
822.6743153982483
 21
479.2951576440241
 31
0.0
  0
LINE
  5
2276
  8
0
 10
822.6743153982483
 20
473.0951576440243
 30
0.0
 11
822.6743153982483
 21
411.7784835416796
 31
0.0
  0
LINE
  5
2277
  8
0
 10
822.6743153982484
 20
517.7784835416796
 30
0.0
 11
822.6743153982483
 21
479.2951576440241
 31
0.0
  0
POLYLINE
  5
2278
  8
HOLES
 66
     1
 10
0.0
 20
0.0
 30
0.0
 70
     1
  0
VERTEX
  5
2489
  8
HOLES
 10
924.7974354786919
 20
262.3784835416797
 30
0.0
  0
VERTEX
  5
248A
  8
HOLES
 10
930.597435478692
 20
262.3784835416797
 30
0.0
  0
VERTEX
  5
248B
  8
HOLES
 10
930.597435478692
 20
268.6784835416794
 30
0.0
  0
VERTEX
  5
248C
  8
HOLES
 10
924.7974354786919
 20
268.6784835416794
 30
0.0
  0
SEQEND
  5
24E7
  8
HOLES
  0
POLYLINE
  5
2279
  8
HOLES
 66
     1
 10
0.0
 20
0.0
 30
0.0
 70
     1
  0
VERTEX
  5
248D
  8
HOLES
 10
840.2743153982484
 20
314.2618094393349
 30
0.0
  0
VERTEX
  5
248E
  8
HOLES
 10
840.2743153982484
 20
308.4618094393352
 30
0.0
  0
VERTEX
  5
248F
  8
HOLES
 10
846.5743153982481
 20
308.4618094393352
 30
0.0
  0
VERTEX
  5
2490
  8
HOLES
 10
846.5743153982481
 20
314.2618094393349
 30
0.0
  0
SEQEND
  5
24E8
  8
HOLES
  0
POLYLINE
  5
227A
  8
HOLES
 66
     1
 10
0.0
 20
0.0
 30
0.0
 70
     1
  0
VERTEX
  5
2491
  8
HOLES
 10
840.2743153982484
 20
473.2951576440244
 30
0.0
  0
VERTEX
  5
2492
  8
HOLES
 10
840.2743153982484
 20
479.0951576440241
 30
0.0
  0
VERTEX
  5
2493
  8
HOLES
 10
846.5743153982481
 20
479.0951576440241
 30
0.0
  0
VERTEX
  5
2494
  8
HOLES
 10
846.5743153982481
 20
473.2951576440244
 30
0.0
  0
SEQEND
  5
24E9
  8
HOLES
  0
POLYLINE
  5
227B
  8
HOLES
 66
     1
 10
0.0
 20
0.0
 30
0.0
 70
     1
  0
VERTEX
  5
2495
  8
HOLES
 10
924.797435478692
 20
525.1784835416793
 30
0.0
  0
VERTEX
  5
2496
  8
HOLES
 10
930.5974354786922
 20
525.1784835416793
 30
0.0
  0
VERTEX
  5
2497
  8
HOLES
 10
930.5974354786922
 20
518.8784835416795
 30
0.0
  0
VERTEX
  5
2498
  8
HOLES
 10
924.797435478692
 20
518.8784835416795
 30
0.0
  0
SEQEND
  5
24EA
  8
HOLES
  0
LINE
  5
227C
  8
0
 10
519.1907235039579
 20
323.2498749871557
 30
0.0
 11
519.1907235039579
 21
341.1330929001384
 31
0.0
  0
LINE
  5
227D
  8
0
 10
519.1907235039579
 20
301.2498749871557
 30
0.0
 11
519.1907235039579
 21
317.5998749871559
 31
0.0
  0
LINE
  5
227E
  8
0
 10
705.1907235039578
 20
306.2498749871557
 30
0.0
 11
705.1907235039578
 21
336.1330929001384
 31
0.0
  0
LINE
  5
227F
  8
0
 10
519.1907235039579
 20
341.1330929001384
 30
0.0
 11
700.1907235039578
 21
341.1330929001384
 31
0.0
  0
LINE
  5
2280
  8
0
 10
680.8907235039578
 20
301.2498749871557
 30
0.0
 11
700.1907235039578
 21
301.2498749871557
 31
0.0
  0
LINE
  5
2281
  8
0
 10
655.8907235039578
 20
301.2498749871557
 30
0.0
 11
674.4907235039577
 21
301.2498749871557
 31
0.0
  0
LINE
  5
2282
  8
0
 10
549.8907235039579
 20
301.2498749871557
 30
0.0
 11
649.490723503958
 21
301.2498749871557
 31
0.0
  0
LINE
  5
2283
  8
0
 10
519.1907235039579
 20
301.2498749871557
 30
0.0
 11
543.4907235039581
 21
301.2498749871557
 31
0.0
  0
LINE
  5
2284
  8
0
 10
674.9907235039577
 20
301.7498749871557
 30
0.0
 11
674.9907235039577
 21
306.7321737000963
 31
0.0
  0
ARC
  5
2285
  8
0
 10
674.4907235039577
 20
301.7498749871557
 30
0.0
 40
0.5000000000000002
 50
270.0
 51
0.0
  0
ARC
  5
2286
  8
0
 10
700.1907235039578
 20
336.1330929001384
 30
0.0
 40
5.0
 50
0.0
 51
90.0
  0
ARC
  5
2287
  8
0
 10
700.1907235039578
 20
306.2498749871557
 30
0.0
 40
5.0
 50
270.0
 51
359.9999999999948
  0
LINE
  5
2288
  8
0
 10
674.6907235039578
 20
323.3498749871557
 30
0.0
 11
680.6907235039578
 21
323.3498749871557
 31
0.0
  0
LINE
  5
2289
  8
0
 10
674.6907235039578
 20
323.3498749871557
 30
0.0
 11
674.6907235039578
 21
307.1904312695918
 31
0.0
  0
LINE
  5
228A
  8
0
 10
649.6907235039578
 20
323.3498749871557
 30
0.0
 11
655.6907235039578
 21
323.3498749871557
 31
0.0
  0
LINE
  5
228B
  8
0
 10
543.6907235039579
 20
323.3498749871557
 30
0.0
 11
549.6907235039579
 21
323.3498749871557
 31
0.0
  0
ARC
  5
228C
  8
0
 10
674.4907235039577
 20
306.7321737000963
 30
0.0
 40
0.5000000000000002
 50
0.0
 51
66.42182152179285
  0
ARC
  5
228D
  8
0
 10
680.8907235039578
 20
301.7498749871557
 30
0.0
 40
0.5000000000000002
 50
180.0
 51
270.0
  0
ARC
  5
228E
  8
0
 10
680.8907235039578
 20
306.7321737000963
 30
0.0
 40
0.5000000000000002
 50
113.5781784782072
 51
180.0
  0
LINE
  5
228F
  8
0
 10
680.3907235039578
 20
301.7498749871557
 30
0.0
 11
680.3907235039578
 21
306.7321737000963
 31
0.0
  0
LINE
  5
2290
  8
0
 10
680.6907235039578
 20
323.3498749871557
 30
0.0
 11
680.6907235039578
 21
307.1904312695918
 31
0.0
  0
ARC
  5
2291
  8
0
 10
649.490723503958
 20
301.7498749871557
 30
0.0
 40
0.5000000000000002
 50
270.0
 51
0.0
  0
LINE
  5
2292
  8
0
 10
649.6907235039578
 20
323.3498749871557
 30
0.0
 11
655.6907235039578
 21
323.3498749871557
 31
0.0
  0
LINE
  5
2293
  8
0
 10
649.6907235039578
 20
323.3498749871557
 30
0.0
 11
649.6907235039578
 21
307.1904312695918
 31
0.0
  0
ARC
  5
2294
  8
0
 10
649.490723503958
 20
306.7321737000963
 30
0.0
 40
0.5000000000000002
 50
0.0
 51
66.42182152181672
  0
LINE
  5
2295
  8
0
 10
649.990723503958
 20
301.7498749871557
 30
0.0
 11
649.990723503958
 21
306.7321737000963
 31
0.0
  0
ARC
  5
2296
  8
0
 10
655.8907235039578
 20
301.7498749871557
 30
0.0
 40
0.5000000000000002
 50
180.0
 51
270.0
  0
ARC
  5
2297
  8
0
 10
655.8907235039578
 20
306.7321737000963
 30
0.0
 40
0.5000000000000002
 50
113.5781784782072
 51
180.0
  0
LINE
  5
2298
  8
0
 10
655.3907235039578
 20
301.7498749871557
 30
0.0
 11
655.3907235039578
 21
306.7321737000963
 31
0.0
  0
LINE
  5
2299
  8
0
 10
655.6907235039578
 20
323.3498749871557
 30
0.0
 11
655.6907235039578
 21
307.1904312695918
 31
0.0
  0
LINE
  5
229A
  8
0
 10
543.6907235039579
 20
323.3498749871557
 30
0.0
 11
549.6907235039579
 21
323.3498749871557
 31
0.0
  0
ARC
  5
229B
  8
0
 10
543.4907235039581
 20
301.7498749871557
 30
0.0
 40
0.5000000000000002
 50
270.0
 51
0.0
  0
LINE
  5
229C
  8
0
 10
543.6907235039579
 20
323.3498749871557
 30
0.0
 11
549.6907235039579
 21
323.3498749871557
 31
0.0
  0
LINE
  5
229D
  8
0
 10
543.6907235039579
 20
323.3498749871557
 30
0.0
 11
543.6907235039579
 21
307.1904312695918
 31
0.0
  0
ARC
  5
229E
  8
0
 10
543.4907235039581
 20
306.7321737000963
 30
0.0
 40
0.5000000000000002
 50
0.0
 51
66.42182152181672
  0
LINE
  5
229F
  8
0
 10
543.9907235039581
 20
301.7498749871557
 30
0.0
 11
543.9907235039581
 21
306.7321737000963
 31
0.0
  0
ARC
  5
22A0
  8
0
 10
549.8907235039579
 20
301.7498749871557
 30
0.0
 40
0.5000000000000002
 50
180.0
 51
270.0
  0
ARC
  5
22A1
  8
0
 10
549.8907235039579
 20
306.7321737000963
 30
0.0
 40
0.5000000000000002
 50
113.5781784782072
 51
180.0
  0
LINE
  5
22A2
  8
0
 10
549.3907235039579
 20
301.7498749871557
 30
0.0
 11
549.3907235039579
 21
306.7321737000963
 31
0.0
  0
LINE
  5
22A3
  8
0
 10
549.6907235039579
 20
323.3498749871557
 30
0.0
 11
549.6907235039579
 21
307.1904312695918
 31
0.0
  0
LINE
  5
22CC
  8
0
 10
524.9407235039579
 20
317.5998749871559
 30
0.0
 11
524.9407235039579
 21
323.2498749871557
 31
0.0
  0
LINE
  5
22CD
  8
0
 10
524.9407235039579
 20
323.2498749871557
 30
0.0
 11
519.1907235039579
 21
323.2498749871557
 31
0.0
  0
POLYLINE
  5
22CE
  8
0
 66
     1
 10
0.0
 20
0.0
 30
0.0
  0
VERTEX
  5
2499
  8
0
 10
519.1907235039579
 20
317.5998749871559
 30
0.0
  0
VERTEX
  5
249A
  8
0
 10
524.9407235039579
 20
317.5998749871559
 30
0.0
  0
SEQEND
  5
24EB
  8
0
  0
LINE
  5
22D2
  8
0
 10
519.1907235039579
 20
273.846900323953
 30
0.0
 11
519.1907235039579
 21
291.7301182369357
 31
0.0
  0
LINE
  5
22D3
  8
0
 10
519.1907235039579
 20
251.846900323953
 30
0.0
 11
519.1907235039579
 21
268.1969003239532
 31
0.0
  0
LINE
  5
22D4
  8
0
 10
705.1907235039578
 20
256.846900323953
 30
0.0
 11
705.1907235039578
 21
286.7301182369357
 31
0.0
  0
LINE
  5
22D5
  8
0
 10
519.1907235039579
 20
291.7301182369357
 30
0.0
 11
700.1907235039578
 21
291.7301182369357
 31
0.0
  0
LINE
  5
22D6
  8
0
 10
680.8907235039578
 20
251.846900323953
 30
0.0
 11
700.1907235039578
 21
251.846900323953
 31
0.0
  0
LINE
  5
22D7
  8
0
 10
655.8907235039578
 20
251.846900323953
 30
0.0
 11
674.4907235039577
 21
251.846900323953
 31
0.0
  0
LINE
  5
22D8
  8
0
 10
549.8907235039579
 20
251.846900323953
 30
0.0
 11
649.490723503958
 21
251.846900323953
 31
0.0
  0
LINE
  5
22D9
  8
0
 10
519.1907235039579
 20
251.846900323953
 30
0.0
 11
543.4907235039581
 21
251.846900323953
 31
0.0
  0
LINE
  5
22DA
  8
0
 10
674.9907235039577
 20
252.346900323953
 30
0.0
 11
674.9907235039577
 21
257.3291990368936
 31
0.0
  0
ARC
  5
22DB
  8
0
 10
674.4907235039577
 20
252.346900323953
 30
0.0
 40
0.5000000000000002
 50
270.0
 51
0.0
  0
ARC
  5
22DC
  8
0
 10
700.1907235039578
 20
286.7301182369357
 30
0.0
 40
5.0
 50
0.0
 51
90.0
  0
ARC
  5
22DD
  8
0
 10
700.1907235039578
 20
256.846900323953
 30
0.0
 40
5.0
 50
270.0
 51
359.9999999999948
  0
LINE
  5
22DE
  8
0
 10
674.6907235039578
 20
273.9469003239529
 30
0.0
 11
680.6907235039578
 21
273.9469003239529
 31
0.0
  0
LINE
  5
22DF
  8
0
 10
674.6907235039578
 20
273.9469003239529
 30
0.0
 11
674.6907235039578
 21
257.7874566063891
 31
0.0
  0
LINE
  5
22E0
  8
0
 10
649.6907235039578
 20
273.9469003239529
 30
0.0
 11
655.6907235039578
 21
273.9469003239529
 31
0.0
  0
LINE
  5
22E1
  8
0
 10
543.6907235039579
 20
273.9469003239529
 30
0.0
 11
549.6907235039579
 21
273.9469003239529
 31
0.0
  0
ARC
  5
22E2
  8
0
 10
674.4907235039577
 20
257.3291990368936
 30
0.0
 40
0.5000000000000002
 50
0.0
 51
66.42182152179285
  0
ARC
  5
22E3
  8
0
 10
680.8907235039578
 20
252.346900323953
 30
0.0
 40
0.5000000000000002
 50
180.0
 51
270.0
  0
ARC
  5
22E4
  8
0
 10
680.8907235039578
 20
257.3291990368936
 30
0.0
 40
0.5000000000000002
 50
113.5781784782072
 51
180.0
  0
LINE
  5
22E5
  8
0
 10
680.3907235039578
 20
252.346900323953
 30
0.0
 11
680.3907235039578
 21
257.3291990368936
 31
0.0
  0
LINE
  5
22E6
  8
0
 10
680.6907235039578
 20
273.9469003239529
 30
0.0
 11
680.6907235039578
 21
257.7874566063891
 31
0.0
  0
ARC
  5
22E7
  8
0
 10
649.490723503958
 20
252.346900323953
 30
0.0
 40
0.5000000000000002
 50
270.0
 51
0.0
  0
LINE
  5
22E8
  8
0
 10
649.6907235039578
 20
273.9469003239529
 30
0.0
 11
655.6907235039578
 21
273.9469003239529
 31
0.0
  0
LINE
  5
22E9
  8
0
 10
649.6907235039578
 20
273.9469003239529
 30
0.0
 11
649.6907235039578
 21
257.7874566063891
 31
0.0
  0
ARC
  5
22EA
  8
0
 10
649.490723503958
 20
257.3291990368936
 30
0.0
 40
0.5000000000000002
 50
0.0
 51
66.42182152181672
  0
LINE
  5
22EB
  8
0
 10
649.990723503958
 20
252.346900323953
 30
0.0
 11
649.990723503958
 21
257.3291990368936
 31
0.0
  0
ARC
  5
22EC
  8
0
 10
655.8907235039578
 20
252.346900323953
 30
0.0
 40
0.5000000000000002
 50
180.0
 51
270.0
  0
ARC
  5
22ED
  8
0
 10
655.8907235039578
 20
257.3291990368936
 30
0.0
 40
0.5000000000000002
 50
113.5781784782072
 51
180.0
  0
LINE
  5
22EE
  8
0
 10
655.3907235039578
 20
252.346900323953
 30
0.0
 11
655.3907235039578
 21
257.3291990368936
 31
0.0
  0
LINE
  5
22EF
  8
0
 10
655.6907235039578
 20
273.9469003239529
 30
0.0
 11
655.6907235039578
 21
257.7874566063891
 31
0.0
  0
LINE
  5
22F0
  8
0
 10
543.6907235039579
 20
273.9469003239529
 30
0.0
 11
549.6907235039579
 21
273.9469003239529
 31
0.0
  0
ARC
  5
22F1
  8
0
 10
543.4907235039581
 20
252.346900323953
 30
0.0
 40
0.5000000000000002
 50
270.0
 51
0.0
  0
LINE
  5
22F2
  8
0
 10
543.6907235039579
 20
273.9469003239529
 30
0.0
 11
549.6907235039579
 21
273.9469003239529
 31
0.0
  0
LINE
  5
22F3
  8
0
 10
543.6907235039579
 20
273.9469003239529
 30
0.0
 11
543.6907235039579
 21
257.7874566063891
 31
0.0
  0
ARC
  5
22F4
  8
0
 10
543.4907235039581
 20
257.3291990368936
 30
0.0
 40
0.5000000000000002
 50
0.0
 51
66.42182152181672
  0
LINE
  5
22F5
  8
0
 10
543.9907235039581
 20
252.346900323953
 30
0.0
 11
543.9907235039581
 21
257.3291990368936
 31
0.0
  0
ARC
  5
22F6
  8
0
 10
549.8907235039579
 20
252.346900323953
 30
0.0
 40
0.5000000000000002
 50
180.0
 51
270.0
  0
ARC
  5
22F7
  8
0
 10
549.8907235039579
 20
257.3291990368936
 30
0.0
 40
0.5000000000000002
 50
113.5781784782072
 51
180.0
  0
LINE
  5
22F8
  8
0
 10
549.3907235039579
 20
252.346900323953
 30
0.0
 11
549.3907235039579
 21
257.3291990368936
 31
0.0
  0
LINE
  5
22F9
  8
0
 10
549.6907235039579
 20
273.9469003239529
 30
0.0
 11
549.6907235039579
 21
257.7874566063891
 31
0.0
  0
LINE
  5
22FA
  8
0
 10
524.9407235039579
 20
268.1969003239532
 30
0.0
 11
524.9407235039579
 21
273.846900323953
 31
0.0
  0
LINE
  5
22FB
  8
0
 10
524.9407235039579
 20
273.846900323953
 30
0.0
 11
519.1907235039579
 21
273.846900323953
 31
0.0
  0
POLYLINE
  5
22FC
  8
0
 66
     1
 10
0.0
 20
0.0
 30
0.0
  0
VERTEX
  5
249B
  8
0
 10
519.1907235039579
 20
268.1969003239532
 30
0.0
  0
VERTEX
  5
249C
  8
0
 10
524.9407235039579
 20
268.1969003239532
 30
0.0
  0
SEQEND
  5
24EC
  8
0
  0
ARC
  5
2306
  8
0
 10
502.5770410240348
 20
44.30265526151425
 30
0.0
 40
23.0
 50
206.2210203335763
 51
333.7789796664232
  0
LINE
  5
2307
  8
0
 10
462.0915593627237
 20
74.44824579117409
 30
0.0
 11
481.9438253820042
 21
34.14045017258456
 31
0.0
  0
LINE
  5
2308
  8
0
 10
572.7204019623161
 20
87.72519458518798
 30
0.0
 11
547.0254279398271
 21
76.94030112629903
 31
0.0
  0
LINE
  5
2309
  8
0
 10
541.9246553867674
 20
72.13793408833737
 30
0.0
 11
523.2102566660653
 21
34.14045017258456
 31
0.0
  0
ARC
  5
230A
  8
0
 10
550.8956187093893
 20
67.7195840496723
 30
0.0
 40
9.999999999999993
 50
112.769144356946
 51
153.7789796664233
  0
ARC
  5
230B
  8
0
 10
576.5905927318784
 20
78.50447750856128
 30
0.0
 40
9.99999999999996
 50
90.0
 51
112.7691443569475
  0
LINE
  5
230C
  8
0
 10
426.2023323085052
 20
152.3932846904086
 30
0.0
 11
426.2023323085052
 21
188.3932846904086
 31
0.0
  0
LINE
  5
230D
  8
0
 10
430.9178687153176
 20
142.1422750142858
 30
0.0
 11
450.3608226555841
 21
133.9520566600667
 31
0.0
  0
ARC
  5
230E
  8
0
 10
439.7023323085052
 20
152.3932846904086
 30
0.0
 40
13.5
 50
180.0
 51
229.405524338231
  0
LINE
  5
230F
  8
0
 10
440.6393456854507
 20
138.0471658371763
 30
0.0
 11
458.5180731302744
 21
130.5158677577514
 31
0.0
  0
ARC
  5
2310
  8
0
 10
456.5770410240348
 20
125.9080055242914
 30
0.0
 40
5.000000000000002
 50
0.0
 51
67.15705636114964
  0
ARC
  5
2311
  8
0
 10
466.5770410240348
 20
76.65742081050661
 30
0.0
 40
4.999999999999981
 50
180.0
 51
206.2210203335759
  0
LINE
  5
2312
  8
0
 10
794.9517497395643
 20
152.3932846904086
 30
0.0
 11
794.9517497395643
 21
188.3932846904086
 31
0.0
  0
LINE
  5
2313
  8
0
 10
790.236213332752
 20
142.1422750142858
 30
0.0
 11
770.7932593924854
 21
133.9520566600667
 31
0.0
  0
ARC
  5
2314
  8
0
 10
781.4517497395643
 20
152.3932846904086
 30
0.0
 40
13.5
 50
310.594475661769
 51
0.0
  0
LINE
  5
2315
  8
0
 10
780.5147363626186
 20
138.0471658371763
 30
0.0
 11
762.6360089177949
 21
130.5158677577514
 31
0.0
  0
ARC
  5
2316
  8
0
 10
764.5770410240348
 20
125.9080055242914
 30
0.0
 40
5.000000000000002
 50
112.8429436388533
 51
180.0
  0
LINE
  5
2317
  8
0
 10
759.0625226853458
 20
74.44824579117409
 30
0.0
 11
739.2102566660651
 21
34.14045017258456
 31
0.0
  0
ARC
  5
2318
  8
0
 10
754.5770410240348
 20
76.65742081050661
 30
0.0
 40
4.999999999999981
 50
333.7789796664244
 51
0.0
  0
ARC
  5
2319
  8
0
 10
718.5770410240348
 20
44.30265526151425
 30
0.0
 40
23.0
 50
206.2210203335763
 51
333.7789796664231
  0
LINE
  5
231A
  8
0
 10
648.4336800857532
 20
87.72519458518798
 30
0.0
 11
674.1286541082422
 21
76.94030112629903
 31
0.0
  0
LINE
  5
231B
  8
0
 10
679.2294266613021
 20
72.13793408833737
 30
0.0
 11
697.9438253820042
 21
34.14045017258456
 31
0.0
  0
LINE
  5
231C
  8
0
 10
644.563489316191
 20
88.50447750856125
 30
0.0
 11
576.5905927318784
 21
88.50447750856125
 31
0.0
  0
ARC
  5
231D
  8
0
 10
670.25846333868
 20
67.7195840496723
 30
0.0
 40
9.999999999999993
 50
26.22102033357661
 51
67.23085564305256
  0
ARC
  5
231E
  8
0
 10
644.563489316191
 20
78.50447750856128
 30
0.0
 40
9.99999999999996
 50
67.23085564305251
 51
90.0
  0
LINE
  5
231F
  8
0
 10
436.7103829884884
 20
201.5575636021626
 30
0.0
 11
478.8241004767906
 21
215.2950524984162
 31
0.0
  0
ARC
  5
2320
  8
0
 10
486.5770410240348
 20
191.527597589005
 30
0.0
 40
25.0
 50
90.0
 51
108.0663190725432
  0
ARC
  5
2321
  8
0
 10
439.7023323085052
 20
188.3932846904086
 30
0.0
 40
13.5
 50
102.8045464514591
 51
180.0
  0
LINE
  5
2322
  8
0
 10
784.4436990595809
 20
201.5575636021626
 30
0.0
 11
742.329981571279
 21
215.2950524984162
 31
0.0
  0
ARC
  5
2323
  8
0
 10
734.5770410240348
 20
191.527597589005
 30
0.0
 40
25.0
 50
71.93368092745683
 51
90.0
  0
ARC
  5
2324
  8
0
 10
781.4517497395643
 20
188.3932846904086
 30
0.0
 40
13.5
 50
0.0
 51
77.19545354854193
  0
LINE
  5
232E
  8
0
 10
461.5770410240348
 20
114.6044775085613
 30
0.0
 11
461.5770410240348
 21
125.9080055242914
 31
0.0
  0
LINE
  5
232F
  8
0
 10
461.5770410240348
 20
76.65742081050664
 30
0.0
 11
461.5770410240348
 21
108.4044775085612
 31
0.0
  0
LINE
  5
2330
  8
0
 10
463.5770410240348
 20
114.6044775085613
 30
0.0
 11
461.5770410240348
 21
114.6044775085613
 31
0.0
  0
LINE
  5
2331
  8
0
 10
759.5770410240348
 20
114.6044775085613
 30
0.0
 11
759.5770410240348
 21
125.9080055242914
 31
0.0
  0
LINE
  5
2332
  8
0
 10
463.5770410240348
 20
108.4044775085612
 30
0.0
 11
461.5770410240348
 21
108.4044775085612
 31
0.0
  0
LINE
  5
2333
  8
0
 10
463.5770410240348
 20
108.4044775085612
 30
0.0
 11
463.5770410240348
 21
114.6044775085613
 31
0.0
  0
LINE
  5
2334
  8
0
 10
759.5770410240348
 20
76.65742081050664
 30
0.0
 11
759.5770410240348
 21
108.4044775085612
 31
0.0
  0
LINE
  5
2335
  8
0
 10
757.5770410240348
 20
108.4044775085612
 30
0.0
 11
759.5770410240348
 21
108.4044775085612
 31
0.0
  0
LINE
  5
2336
  8
0
 10
757.5770410240348
 20
114.6044775085613
 30
0.0
 11
759.5770410240348
 21
114.6044775085613
 31
0.0
  0
LINE
  5
2337
  8
0
 10
757.5770410240348
 20
108.4044775085612
 30
0.0
 11
757.5770410240348
 21
114.6044775085613
 31
0.0
  0
LINE
  5
2338
  8
0
 10
525.0603669216903
 20
216.527597589005
 30
0.0
 11
486.5770410240348
 21
216.527597589005
 31
0.0
  0
LINE
  5
2339
  8
0
 10
525.0603669216903
 20
216.527597589005
 30
0.0
 11
525.0603669216903
 21
214.527597589005
 31
0.0
  0
LINE
  5
233A
  8
0
 10
531.2603669216901
 20
214.527597589005
 30
0.0
 11
525.0603669216903
 21
214.527597589005
 31
0.0
  0
LINE
  5
233B
  8
0
 10
531.2603669216901
 20
216.527597589005
 30
0.0
 11
531.2603669216901
 21
214.527597589005
 31
0.0
  0
LINE
  5
233C
  8
0
 10
696.0937151263793
 20
214.527597589005
 30
0.0
 11
689.8937151263794
 21
214.527597589005
 31
0.0
  0
LINE
  5
233D
  8
0
 10
689.8937151263794
 20
216.527597589005
 30
0.0
 11
689.8937151263794
 21
214.527597589005
 31
0.0
  0
LINE
  5
233E
  8
0
 10
696.0937151263793
 20
216.527597589005
 30
0.0
 11
696.0937151263793
 21
214.527597589005
 31
0.0
  0
LINE
  5
233F
  8
0
 10
689.8937151263794
 20
216.527597589005
 30
0.0
 11
531.2603669216901
 21
216.527597589005
 31
0.0
  0
LINE
  5
2340
  8
0
 10
734.5770410240348
 20
216.527597589005
 30
0.0
 11
696.0937151263793
 21
216.527597589005
 31
0.0
  0
POLYLINE
  5
2341
  8
HOLES
 66
     1
 10
0.0
 20
0.0
 30
0.0
 70
     1
  0
VERTEX
  5
249D
  8
HOLES
 10
479.1770410240349
 20
114.4044775085613
 30
0.0
  0
VERTEX
  5
249E
  8
HOLES
 10
479.1770410240349
 20
108.6044775085613
 30
0.0
  0
VERTEX
  5
249F
  8
HOLES
 10
485.4770410240346
 20
108.6044775085613
 30
0.0
  0
VERTEX
  5
24A0
  8
HOLES
 10
485.4770410240346
 20
114.4044775085613
 30
0.0
  0
SEQEND
  5
24ED
  8
HOLES
  0
POLYLINE
  5
2342
  8
HOLES
 66
     1
 10
0.0
 20
0.0
 30
0.0
 70
     1
  0
VERTEX
  5
24A1
  8
HOLES
 10
531.06036692169
 20
198.9275975890048
 30
0.0
  0
VERTEX
  5
24A2
  8
HOLES
 10
525.2603669216903
 20
198.9275975890048
 30
0.0
  0
VERTEX
  5
24A3
  8
HOLES
 10
525.2603669216903
 20
192.6275975890051
 30
0.0
  0
VERTEX
  5
24A4
  8
HOLES
 10
531.06036692169
 20
192.6275975890051
 30
0.0
  0
SEQEND
  5
24EE
  8
HOLES
  0
POLYLINE
  5
2343
  8
HOLES
 66
     1
 10
0.0
 20
0.0
 30
0.0
 70
     1
  0
VERTEX
  5
24A5
  8
HOLES
 10
690.0937151263795
 20
198.9275975890048
 30
0.0
  0
VERTEX
  5
24A6
  8
HOLES
 10
695.8937151263792
 20
198.9275975890048
 30
0.0
  0
VERTEX
  5
24A7
  8
HOLES
 10
695.8937151263792
 20
192.6275975890051
 30
0.0
  0
VERTEX
  5
24A8
  8
HOLES
 10
690.0937151263795
 20
192.6275975890051
 30
0.0
  0
SEQEND
  5
24EF
  8
HOLES
  0
POLYLINE
  5
2344
  8
HOLES
 66
     1
 10
0.0
 20
0.0
 30
0.0
 70
     1
  0
VERTEX
  5
24A9
  8
HOLES
 10
741.9770410240346
 20
114.4044775085613
 30
0.0
  0
VERTEX
  5
24AA
  8
HOLES
 10
741.9770410240346
 20
108.6044775085612
 30
0.0
  0
VERTEX
  5
24AB
  8
HOLES
 10
735.6770410240349
 20
108.6044775085612
 30
0.0
  0
VERTEX
  5
24AC
  8
HOLES
 10
735.6770410240349
 20
114.4044775085613
 30
0.0
  0
SEQEND
  5
24F0
  8
HOLES
  0
ARC
  5
2345
  8
0
 10
841.4338873802952
 20
192.9820493816609
 30
0.0
 40
25.0
 50
90.0
 51
180.0
  0
ARC
  5
2346
  8
0
 10
986.6588297077859
 20
192.9820493816609
 30
0.0
 40
25.0
 50
0.0
 51
90.0
  0
ARC
  5
2347
  8
0
 10
986.6588297077859
 20
-55.01795061833934
 30
0.0
 40
25.0
 50
270.0
 51
0.0
  0
LINE
  5
2348
  8
0
 10
1011.658829707786
 20
-55.01795061833934
 30
0.0
 11
1011.658829707786
 21
192.9820493816609
 31
0.0
  0
ARC
  5
2349
  8
0
 10
841.4338873802952
 20
-55.01795061833934
 30
0.0
 40
25.0
 50
180.0
 51
270.0
  0
LINE
  5
234A
  8
0
 10
918.3570074607388
 20
-78.01795061833934
 30
0.0
 11
918.3570074607388
 21
-80.01795061833934
 31
0.0
  0
LINE
  5
234B
  8
0
 10
924.5570074607389
 20
-78.01795061833934
 30
0.0
 11
924.5570074607389
 21
-80.01795061833934
 31
0.0
  0
LINE
  5
234C
  8
0
 10
924.5570074607389
 20
-78.01795061833934
 30
0.0
 11
918.3570074607388
 21
-78.01795061833934
 31
0.0
  0
LINE
  5
234D
  8
0
 10
924.5570074607389
 20
215.9820493816607
 30
0.0
 11
924.5570074607389
 21
217.9820493816607
 31
0.0
  0
LINE
  5
234E
  8
0
 10
918.3570074607388
 20
215.9820493816607
 30
0.0
 11
918.3570074607388
 21
217.9820493816607
 31
0.0
  0
LINE
  5
234F
  8
0
 10
924.5570074607389
 20
215.9820493816607
 30
0.0
 11
918.3570074607388
 21
215.9820493816607
 31
0.0
  0
LINE
  5
2350
  8
0
 10
918.3570074607388
 20
-80.01795061833934
 30
0.0
 11
841.4338873802952
 21
-80.01795061833934
 31
0.0
  0
LINE
  5
2351
  8
0
 10
918.3570074607388
 20
217.9820493816609
 30
0.0
 11
841.4338873802952
 21
217.9820493816609
 31
0.0
  0
LINE
  5
2352
  8
0
 10
986.6588297077859
 20
-80.01795061833934
 30
0.0
 11
924.5570074607389
 21
-80.01795061833934
 31
0.0
  0
LINE
  5
2353
  8
0
 10
986.6588297077859
 20
217.9820493816609
 30
0.0
 11
924.5570074607389
 21
217.9820493816609
 31
0.0
  0
LINE
  5
2354
  8
0
 10
816.4338873802952
 20
-16.53462472068384
 30
0.0
 11
818.4338873802952
 21
-16.53462472068384
 31
0.0
  0
LINE
  5
2355
  8
0
 10
818.4338873802952
 20
-10.33462472068402
 30
0.0
 11
818.4338873802952
 21
-16.53462472068384
 31
0.0
  0
LINE
  5
2356
  8
0
 10
816.4338873802952
 20
-10.33462472068402
 30
0.0
 11
818.4338873802952
 21
-10.33462472068402
 31
0.0
  0
LINE
  5
2357
  8
0
 10
818.4338873802952
 20
154.4987234840052
 30
0.0
 11
818.4338873802952
 21
148.2987234840053
 31
0.0
  0
LINE
  5
2358
  8
0
 10
816.4338873802952
 20
148.2987234840053
 30
0.0
 11
818.4338873802952
 21
148.2987234840053
 31
0.0
  0
LINE
  5
2359
  8
0
 10
816.4338873802952
 20
154.4987234840052
 30
0.0
 11
818.4338873802952
 21
154.4987234840052
 31
0.0
  0
LINE
  5
235A
  8
0
 10
816.4338873802952
 20
-16.53462472068384
 30
0.0
 11
816.4338873802952
 21
-55.01795061833934
 31
0.0
  0
LINE
  5
235B
  8
0
 10
816.4338873802952
 20
148.2987234840053
 30
0.0
 11
816.4338873802952
 21
-10.33462472068402
 31
0.0
  0
LINE
  5
235C
  8
0
 10
816.4338873802952
 20
192.9820493816609
 30
0.0
 11
816.4338873802952
 21
154.4987234840052
 31
0.0
  0
POLYLINE
  5
235D
  8
HOLES
 66
     1
 10
0.0
 20
0.0
 30
0.0
  0
VERTEX
  5
24AD
  8
HOLES
 10
918.557007460739
 20
-72.1179506183397
 30
0.0
  0
VERTEX
  5
24AE
  8
HOLES
 10
924.357007460739
 20
-72.1179506183397
 30
0.0
  0
SEQEND
  5
24F1
  8
HOLES
  0
LINE
  5
235E
  8
HOLES
 10
924.357007460739
 20
-72.1179506183397
 30
0.0
 11
924.357007460739
 21
-55.91795061833989
 31
0.0
  0
LINE
  5
235F
  8
HOLES
 10
918.557007460739
 20
-72.1179506183397
 30
0.0
 11
918.557007460739
 21
-55.91795061833989
 31
0.0
  0
POLYLINE
  5
2360
  8
HOLES
 66
     1
 10
0.0
 20
0.0
 30
0.0
  0
VERTEX
  5
24AF
  8
HOLES
 10
924.357007460739
 20
-71.91795061833989
 30
0.0
  0
VERTEX
  5
24B0
  8
HOLES
 10
924.357007460739
 20
-56.11795061833971
 30
0.0
  0
SEQEND
  5
24F2
  8
HOLES
  0
POLYLINE
  5
2361
  8
HOLES
 66
     1
 10
0.0
 20
0.0
 30
0.0
  0
VERTEX
  5
24B1
  8
HOLES
 10
924.357007460739
 20
-55.91795061833989
 30
0.0
  0
VERTEX
  5
24B2
  8
HOLES
 10
918.557007460739
 20
-55.91795061833989
 30
0.0
  0
SEQEND
  5
24F3
  8
HOLES
  0
POLYLINE
  5
2362
  8
HOLES
 66
     1
 10
0.0
 20
0.0
 30
0.0
  0
VERTEX
  5
24B3
  8
HOLES
 10
918.557007460739
 20
-56.11795061833971
 30
0.0
  0
VERTEX
  5
24B4
  8
HOLES
 10
918.557007460739
 20
-71.91795061833989
 30
0.0
  0
SEQEND
  5
24F4
  8
HOLES
  0
LINE
  5
2363
  8
HOLES
 10
824.3338873802949
 20
-16.33462472068447
 30
0.0
 11
840.5338873802947
 21
-16.33462472068447
 31
0.0
  0
LINE
  5
2364
  8
HOLES
 10
824.3338873802949
 20
-10.53462472068429
 30
0.0
 11
840.5338873802947
 21
-10.53462472068429
 31
0.0
  0
POLYLINE
  5
2365
  8
HOLES
 66
     1
 10
0.0
 20
0.0
 30
0.0
  0
VERTEX
  5
24B5
  8
HOLES
 10
824.5338873802947
 20
-16.33462472068447
 30
0.0
  0
VERTEX
  5
24B6
  8
HOLES
 10
840.3338873802949
 20
-16.33462472068447
 30
0.0
  0
SEQEND
  5
24F5
  8
HOLES
  0
POLYLINE
  5
2366
  8
HOLES
 66
     1
 10
0.0
 20
0.0
 30
0.0
  0
VERTEX
  5
24B7
  8
HOLES
 10
840.5338873802947
 20
-16.33462472068447
 30
0.0
  0
VERTEX
  5
24B8
  8
HOLES
 10
840.5338873802947
 20
-10.53462472068429
 30
0.0
  0
SEQEND
  5
24F6
  8
HOLES
  0
POLYLINE
  5
2367
  8
HOLES
 66
     1
 10
0.0
 20
0.0
 30
0.0
  0
VERTEX
  5
24B9
  8
HOLES
 10
840.3338873802949
 20
-10.53462472068429
 30
0.0
  0
VERTEX
  5
24BA
  8
HOLES
 10
824.5338873802947
 20
-10.53462472068429
 30
0.0
  0
SEQEND
  5
24F7
  8
HOLES
  0
POLYLINE
  5
2368
  8
HOLES
 66
     1
 10
0.0
 20
0.0
 30
0.0
  0
VERTEX
  5
24BB
  8
HOLES
 10
824.3338873802949
 20
-10.53462472068429
 30
0.0
  0
VERTEX
  5
24BC
  8
HOLES
 10
824.3338873802949
 20
-16.33462472068447
 30
0.0
  0
SEQEND
  5
24F8
  8
HOLES
  0
LINE
  5
2369
  8
HOLES
 10
824.3338873802949
 20
154.2987234840058
 30
0.0
 11
840.5338873802947
 21
154.2987234840058
 31
0.0
  0
LINE
  5
236A
  8
HOLES
 10
824.3338873802949
 20
148.4987234840056
 30
0.0
 11
840.5338873802947
 21
148.4987234840056
 31
0.0
  0
POLYLINE
  5
236B
  8
HOLES
 66
     1
 10
0.0
 20
0.0
 30
0.0
  0
VERTEX
  5
24BD
  8
HOLES
 10
824.5338873802947
 20
154.2987234840058
 30
0.0
  0
VERTEX
  5
24BE
  8
HOLES
 10
840.3338873802949
 20
154.2987234840058
 30
0.0
  0
SEQEND
  5
24F9
  8
HOLES
  0
POLYLINE
  5
236C
  8
HOLES
 66
     1
 10
0.0
 20
0.0
 30
0.0
  0
VERTEX
  5
24BF
  8
HOLES
 10
840.5338873802947
 20
154.2987234840058
 30
0.0
  0
VERTEX
  5
24C0
  8
HOLES
 10
840.5338873802947
 20
148.4987234840056
 30
0.0
  0
SEQEND
  5
24FA
  8
HOLES
  0
POLYLINE
  5
236D
  8
HOLES
 66
     1
 10
0.0
 20
0.0
 30
0.0
  0
VERTEX
  5
24C1
  8
HOLES
 10
840.3338873802949
 20
148.4987234840056
 30
0.0
  0
VERTEX
  5
24C2
  8
HOLES
 10
824.5338873802947
 20
148.4987234840056
 30
0.0
  0
SEQEND
  5
24FB
  8
HOLES
  0
POLYLINE
  5
236E
  8
HOLES
 66
     1
 10
0.0
 20
0.0
 30
0.0
  0
VERTEX
  5
24C3
  8
HOLES
 10
824.3338873802949
 20
148.4987234840056
 30
0.0
  0
VERTEX
  5
24C4
  8
HOLES
 10
824.3338873802949
 20
154.2987234840058
 30
0.0
  0
SEQEND
  5
24FC
  8
HOLES
  0
POLYLINE
  5
236F
  8
HOLES
 66
     1
 10
0.0
 20
0.0
 30
0.0
  0
VERTEX
  5
24C5
  8
HOLES
 10
918.557007460739
 20
210.082049381661
 30
0.0
  0
VERTEX
  5
24C6
  8
HOLES
 10
924.357007460739
 20
210.082049381661
 30
0.0
  0
SEQEND
  5
24FD
  8
HOLES
  0
LINE
  5
2370
  8
HOLES
 10
924.357007460739
 20
210.082049381661
 30
0.0
 11
924.357007460739
 21
193.8820493816612
 31
0.0
  0
LINE
  5
2371
  8
HOLES
 10
918.557007460739
 20
210.082049381661
 30
0.0
 11
918.557007460739
 21
193.8820493816612
 31
0.0
  0
POLYLINE
  5
2372
  8
HOLES
 66
     1
 10
0.0
 20
0.0
 30
0.0
  0
VERTEX
  5
24C7
  8
HOLES
 10
924.357007460739
 20
209.8820493816612
 30
0.0
  0
VERTEX
  5
24C8
  8
HOLES
 10
924.357007460739
 20
194.082049381661
 30
0.0
  0
SEQEND
  5
24FE
  8
HOLES
  0
POLYLINE
  5
2373
  8
HOLES
 66
     1
 10
0.0
 20
0.0
 30
0.0
  0
VERTEX
  5
24C9
  8
HOLES
 10
924.357007460739
 20
193.8820493816612
 30
0.0
  0
VERTEX
  5
24CA
  8
HOLES
 10
918.557007460739
 20
193.8820493816612
 30
0.0
  0
SEQEND
  5
24FF
  8
HOLES
  0
POLYLINE
  5
2374
  8
HOLES
 66
     1
 10
0.0
 20
0.0
 30
0.0
  0
VERTEX
  5
24CB
  8
HOLES
 10
918.557007460739
 20
194.082049381661
 30
0.0
  0
VERTEX
  5
24CC
  8
HOLES
 10
918.557007460739
 20
209.8820493816612
 30
0.0
  0
SEQEND
  5
2500
  8
HOLES
  0
LINE
  5
2375
  8
0
 10
600.5924539744684
 20
-3.736737241844082
 30
0.0
 11
600.5924539744684
 21
14.14648067113859
 31
0.0
  0
LINE
  5
2376
  8
0
 10
600.5924539744684
 20
-25.73673724184408
 30
0.0
 11
600.5924539744684
 21
-9.386737241843946
 31
0.0
  0
LINE
  5
2377
  8
0
 10
786.5924539744683
 20
-20.73673724184408
 30
0.0
 11
786.5924539744683
 21
9.14648067113859
 31
0.0
  0
LINE
  5
2378
  8
0
 10
600.5924539744684
 20
14.14648067113859
 30
0.0
 11
781.5924539744683
 21
14.14648067113859
 31
0.0
  0
LINE
  5
2379
  8
0
 10
762.2924539744683
 20
-25.73673724184408
 30
0.0
 11
781.5924539744683
 21
-25.73673724184408
 31
0.0
  0
LINE
  5
237A
  8
0
 10
737.2924539744683
 20
-25.73673724184408
 30
0.0
 11
755.8924539744683
 21
-25.73673724184408
 31
0.0
  0
LINE
  5
237B
  8
0
 10
631.2924539744685
 20
-25.73673724184408
 30
0.0
 11
730.8924539744685
 21
-25.73673724184408
 31
0.0
  0
LINE
  5
237C
  8
0
 10
600.5924539744684
 20
-25.73673724184408
 30
0.0
 11
624.8924539744686
 21
-25.73673724184408
 31
0.0
  0
LINE
  5
237D
  8
0
 10
756.3924539744683
 20
-25.23673724184408
 30
0.0
 11
756.3924539744683
 21
-20.25443852890356
 31
0.0
  0
ARC
  5
237E
  8
0
 10
755.8924539744683
 20
-25.23673724184408
 30
0.0
 40
0.5000000000000002
 50
270.0
 51
0.0
  0
ARC
  5
237F
  8
0
 10
781.5924539744683
 20
9.14648067113859
 30
0.0
 40
5.0
 50
0.0
 51
90.0
  0
ARC
  5
2380
  8
0
 10
781.5924539744683
 20
-20.73673724184408
 30
0.0
 40
5.0
 50
270.0
 51
359.9999999999948
  0
LINE
  5
2381
  8
0
 10
756.0924539744683
 20
-3.636737241844173
 30
0.0
 11
762.0924539744683
 21
-3.636737241844173
 31
0.0
  0
LINE
  5
2382
  8
0
 10
756.0924539744683
 20
-3.636737241844173
 30
0.0
 11
756.0924539744683
 21
-19.79618095940799
 31
0.0
  0
LINE
  5
2383
  8
0
 10
731.0924539744683
 20
-3.636737241844173
 30
0.0
 11
737.0924539744683
 21
-3.636737241844173
 31
0.0
  0
LINE
  5
2384
  8
0
 10
625.0924539744684
 20
-3.636737241844173
 30
0.0
 11
631.0924539744684
 21
-3.636737241844173
 31
0.0
  0
ARC
  5
2385
  8
0
 10
755.8924539744683
 20
-20.25443852890356
 30
0.0
 40
0.5000000000000002
 50
0.0
 51
66.42182152179252
  0
ARC
  5
2386
  8
0
 10
762.2924539744683
 20
-25.23673724184408
 30
0.0
 40
0.5000000000000002
 50
180.0
 51
270.0
  0
ARC
  5
2387
  8
0
 10
762.2924539744683
 20
-20.25443852890356
 30
0.0
 40
0.5000000000000002
 50
113.5781784782075
 51
180.0
  0
LINE
  5
2388
  8
0
 10
761.7924539744683
 20
-25.23673724184408
 30
0.0
 11
761.7924539744683
 21
-20.25443852890356
 31
0.0
  0
LINE
  5
2389
  8
0
 10
762.0924539744683
 20
-3.636737241844173
 30
0.0
 11
762.0924539744683
 21
-19.79618095940799
 31
0.0
  0
ARC
  5
238A
  8
0
 10
730.8924539744685
 20
-25.23673724184408
 30
0.0
 40
0.5000000000000002
 50
270.0
 51
0.0
  0
LINE
  5
238B
  8
0
 10
731.0924539744683
 20
-3.636737241844173
 30
0.0
 11
737.0924539744683
 21
-3.636737241844173
 31
0.0
  0
LINE
  5
238C
  8
0
 10
731.0924539744683
 20
-3.636737241844173
 30
0.0
 11
731.0924539744683
 21
-19.79618095940799
 31
0.0
  0
ARC
  5
238D
  8
0
 10
730.8924539744685
 20
-20.25443852890356
 30
0.0
 40
0.5000000000000002
 50
0.0
 51
66.42182152182065
  0
LINE
  5
238E
  8
0
 10
731.3924539744685
 20
-25.23673724184408
 30
0.0
 11
731.3924539744685
 21
-20.25443852890356
 31
0.0
  0
ARC
  5
238F
  8
0
 10
737.2924539744683
 20
-25.23673724184408
 30
0.0
 40
0.5000000000000002
 50
180.0
 51
270.0
  0
ARC
  5
2390
  8
0
 10
737.2924539744683
 20
-20.25443852890356
 30
0.0
 40
0.5000000000000002
 50
113.5781784782075
 51
180.0
  0
LINE
  5
2391
  8
0
 10
736.7924539744683
 20
-25.23673724184408
 30
0.0
 11
736.7924539744683
 21
-20.25443852890356
 31
0.0
  0
LINE
  5
2392
  8
0
 10
737.0924539744683
 20
-3.636737241844173
 30
0.0
 11
737.0924539744683
 21
-19.79618095940799
 31
0.0
  0
LINE
  5
2393
  8
0
 10
625.0924539744684
 20
-3.636737241844173
 30
0.0
 11
631.0924539744684
 21
-3.636737241844173
 31
0.0
  0
ARC
  5
2394
  8
0
 10
624.8924539744686
 20
-25.23673724184408
 30
0.0
 40
0.5000000000000002
 50
270.0
 51
0.0
  0
LINE
  5
2395
  8
0
 10
625.0924539744684
 20
-3.636737241844173
 30
0.0
 11
631.0924539744684
 21
-3.636737241844173
 31
0.0
  0
LINE
  5
2396
  8
0
 10
625.0924539744684
 20
-3.636737241844173
 30
0.0
 11
625.0924539744684
 21
-19.79618095940799
 31
0.0
  0
ARC
  5
2397
  8
0
 10
624.8924539744686
 20
-20.25443852890356
 30
0.0
 40
0.5000000000000002
 50
0.0
 51
66.42182152182065
  0
LINE
  5
2398
  8
0
 10
625.3924539744686
 20
-25.23673724184408
 30
0.0
 11
625.3924539744686
 21
-20.25443852890356
 31
0.0
  0
ARC
  5
2399
  8
0
 10
631.2924539744685
 20
-25.23673724184408
 30
0.0
 40
0.5000000000000002
 50
180.0
 51
270.0
  0
ARC
  5
239A
  8
0
 10
631.2924539744685
 20
-20.25443852890356
 30
0.0
 40
0.5000000000000002
 50
113.5781784782075
 51
180.0
  0
LINE
  5
239B
  8
0
 10
630.7924539744685
 20
-25.23673724184408
 30
0.0
 11
630.7924539744685
 21
-20.25443852890356
 31
0.0
  0
LINE
  5
239C
  8
0
 10
631.0924539744684
 20
-3.636737241844173
 30
0.0
 11
631.0924539744684
 21
-19.79618095940799
 31
0.0
  0
LINE
  5
239D
  8
0
 10
606.3424539744684
 20
-9.386737241843946
 30
0.0
 11
606.3424539744684
 21
-3.736737241844082
 31
0.0
  0
LINE
  5
239E
  8
0
 10
606.3424539744684
 20
-3.736737241844082
 30
0.0
 11
600.5924539744684
 21
-3.736737241844082
 31
0.0
  0
POLYLINE
  5
239F
  8
0
 66
     1
 10
0.0
 20
0.0
 30
0.0
  0
VERTEX
  5
24CD
  8
0
 10
600.5924539744684
 20
-9.386737241843946
 30
0.0
  0
VERTEX
  5
24CE
  8
0
 10
606.3424539744684
 20
-9.386737241843946
 30
0.0
  0
SEQEND
  5
2501
  8
0
  0
LINE
  5
23A0
  8
0
 10
600.5924539744684
 20
-53.13971190504679
 30
0.0
 11
600.5924539744684
 21
-35.25649399206412
 31
0.0
  0
LINE
  5
23A1
  8
0
 10
600.5924539744684
 20
-75.1397119050468
 30
0.0
 11
600.5924539744684
 21
-58.78971190504666
 31
0.0
  0
LINE
  5
23A2
  8
0
 10
786.5924539744683
 20
-70.1397119050468
 30
0.0
 11
786.5924539744683
 21
-40.25649399206412
 31
0.0
  0
LINE
  5
23A3
  8
0
 10
600.5924539744684
 20
-35.25649399206412
 30
0.0
 11
781.5924539744683
 21
-35.25649399206412
 31
0.0
  0
LINE
  5
23A4
  8
0
 10
762.2924539744683
 20
-75.1397119050468
 30
0.0
 11
781.5924539744683
 21
-75.1397119050468
 31
0.0
  0
LINE
  5
23A5
  8
0
 10
737.2924539744683
 20
-75.1397119050468
 30
0.0
 11
755.8924539744683
 21
-75.1397119050468
 31
0.0
  0
LINE
  5
23A6
  8
0
 10
631.2924539744685
 20
-75.1397119050468
 30
0.0
 11
730.8924539744685
 21
-75.1397119050468
 31
0.0
  0
LINE
  5
23A7
  8
0
 10
600.5924539744684
 20
-75.1397119050468
 30
0.0
 11
624.8924539744686
 21
-75.1397119050468
 31
0.0
  0
LINE
  5
23A8
  8
0
 10
756.3924539744683
 20
-74.6397119050468
 30
0.0
 11
756.3924539744683
 21
-69.65741319210628
 31
0.0
  0
ARC
  5
23A9
  8
0
 10
755.8924539744683
 20
-74.6397119050468
 30
0.0
 40
0.5000000000000002
 50
270.0
 51
0.0
  0
ARC
  5
23AA
  8
0
 10
781.5924539744683
 20
-40.25649399206412
 30
0.0
 40
5.0
 50
0.0
 51
90.0
  0
ARC
  5
23AB
  8
0
 10
781.5924539744683
 20
-70.1397119050468
 30
0.0
 40
5.0
 50
270.0
 51
359.9999999999948
  0
LINE
  5
23AC
  8
0
 10
756.0924539744683
 20
-53.03971190504689
 30
0.0
 11
762.0924539744683
 21
-53.03971190504689
 31
0.0
  0
LINE
  5
23AD
  8
0
 10
756.0924539744683
 20
-53.03971190504689
 30
0.0
 11
756.0924539744683
 21
-69.1991556226107
 31
0.0
  0
LINE
  5
23AE
  8
0
 10
731.0924539744683
 20
-53.03971190504689
 30
0.0
 11
737.0924539744683
 21
-53.03971190504689
 31
0.0
  0
LINE
  5
23AF
  8
0
 10
625.0924539744684
 20
-53.03971190504689
 30
0.0
 11
631.0924539744684
 21
-53.03971190504689
 31
0.0
  0
ARC
  5
23B0
  8
0
 10
755.8924539744683
 20
-69.65741319210628
 30
0.0
 40
0.5000000000000002
 50
0.0
 51
66.42182152179285
  0
ARC
  5
23B1
  8
0
 10
762.2924539744683
 20
-74.6397119050468
 30
0.0
 40
0.5000000000000002
 50
180.0
 51
270.0
  0
ARC
  5
23B2
  8
0
 10
762.2924539744683
 20
-69.65741319210628
 30
0.0
 40
0.5000000000000002
 50
113.5781784782072
 51
180.0
  0
LINE
  5
23B3
  8
0
 10
761.7924539744683
 20
-74.6397119050468
 30
0.0
 11
761.7924539744683
 21
-69.65741319210628
 31
0.0
  0
LINE
  5
23B4
  8
0
 10
762.0924539744683
 20
-53.03971190504689
 30
0.0
 11
762.0924539744683
 21
-69.1991556226107
 31
0.0
  0
ARC
  5
23B5
  8
0
 10
730.8924539744685
 20
-74.6397119050468
 30
0.0
 40
0.5000000000000002
 50
270.0
 51
0.0
  0
LINE
  5
23B6
  8
0
 10
731.0924539744683
 20
-53.03971190504689
 30
0.0
 11
737.0924539744683
 21
-53.03971190504689
 31
0.0
  0
LINE
  5
23B7
  8
0
 10
731.0924539744683
 20
-53.03971190504689
 30
0.0
 11
731.0924539744683
 21
-69.1991556226107
 31
0.0
  0
ARC
  5
23B8
  8
0
 10
730.8924539744685
 20
-69.65741319210628
 30
0.0
 40
0.5000000000000002
 50
0.0
 51
66.42182152182065
  0
LINE
  5
23B9
  8
0
 10
731.3924539744685
 20
-74.6397119050468
 30
0.0
 11
731.3924539744685
 21
-69.65741319210628
 31
0.0
  0
ARC
  5
23BA
  8
0
 10
737.2924539744683
 20
-74.6397119050468
 30
0.0
 40
0.5000000000000002
 50
180.0
 51
270.0
  0
ARC
  5
23BB
  8
0
 10
737.2924539744683
 20
-69.65741319210628
 30
0.0
 40
0.5000000000000002
 50
113.5781784782072
 51
180.0
  0
LINE
  5
23BC
  8
0
 10
736.7924539744683
 20
-74.6397119050468
 30
0.0
 11
736.7924539744683
 21
-69.65741319210628
 31
0.0
  0
LINE
  5
23BD
  8
0
 10
737.0924539744683
 20
-53.03971190504689
 30
0.0
 11
737.0924539744683
 21
-69.1991556226107
 31
0.0
  0
LINE
  5
23BE
  8
0
 10
625.0924539744684
 20
-53.03971190504689
 30
0.0
 11
631.0924539744684
 21
-53.03971190504689
 31
0.0
  0
ARC
  5
23BF
  8
0
 10
624.8924539744686
 20
-74.6397119050468
 30
0.0
 40
0.5000000000000002
 50
270.0
 51
0.0
  0
LINE
  5
23C0
  8
0
 10
625.0924539744684
 20
-53.03971190504689
 30
0.0
 11
631.0924539744684
 21
-53.03971190504689
 31
0.0
  0
LINE
  5
23C1
  8
0
 10
625.0924539744684
 20
-53.03971190504689
 30
0.0
 11
625.0924539744684
 21
-69.1991556226107
 31
0.0
  0
ARC
  5
23C2
  8
0
 10
624.8924539744686
 20
-69.65741319210628
 30
0.0
 40
0.5000000000000002
 50
0.0
 51
66.42182152182065
  0
LINE
  5
23C3
  8
0
 10
625.3924539744686
 20
-74.6397119050468
 30
0.0
 11
625.3924539744686
 21
-69.65741319210628
 31
0.0
  0
ARC
  5
23C4
  8
0
 10
631.2924539744685
 20
-74.6397119050468
 30
0.0
 40
0.5000000000000002
 50
180.0
 51
270.0
  0
ARC
  5
23C5
  8
0
 10
631.2924539744685
 20
-69.65741319210628
 30
0.0
 40
0.5000000000000002
 50
113.5781784782072
 51
180.0
  0
LINE
  5
23C6
  8
0
 10
630.7924539744685
 20
-74.6397119050468
 30
0.0
 11
630.7924539744685
 21
-69.65741319210628
 31
0.0
  0
LINE
  5
23C7
  8
0
 10
631.0924539744684
 20
-53.03971190504689
 30
0.0
 11
631.0924539744684
 21
-69.1991556226107
 31
0.0
  0
LINE
  5
23C8
  8
0
 10
606.3424539744684
 20
-58.78971190504666
 30
0.0
 11
606.3424539744684
 21
-53.13971190504679
 31
0.0
  0
LINE
  5
23C9
  8
0
 10
606.3424539744684
 20
-53.13971190504679
 30
0.0
 11
600.5924539744684
 21
-53.13971190504679
 31
0.0
  0
POLYLINE
  5
23CA
  8
0
 66
     1
 10
0.0
 20
0.0
 30
0.0
  0
VERTEX
  5
24CF
  8
0
 10
600.5924539744684
 20
-58.78971190504666
 30
0.0
  0
VERTEX
  5
24D0
  8
0
 10
606.3424539744684
 20
-58.78971190504666
 30
0.0
  0
SEQEND
  5
2502
  8
0
  0
LINE
  5
2421
  8
0
 10
488.5304465366085
 20
-37.0081582754425
 30
0.0
 11
470.6472286236253
 21
-37.0081582754425
 31
0.0
  0
LINE
  5
2422
  8
0
 10
510.5304465366085
 20
-37.0081582754425
 30
0.0
 11
494.1804465366081
 21
-37.0081582754425
 31
0.0
  0
LINE
  5
2423
  8
0
 10
510.5304465366085
 20
-37.0081582754425
 30
0.0
 11
510.5304465366085
 21
-12.70815827544243
 31
0.0
  0
LINE
  5
2424
  8
0
 10
488.4304465366081
 20
-12.5081582754425
 30
0.0
 11
488.4304465366081
 21
-6.508158275442497
 31
0.0
  0
LINE
  5
2425
  8
0
 10
488.4304465366081
 20
-12.5081582754425
 30
0.0
 11
488.4304465366081
 21
-6.508158275442497
 31
0.0
  0
ARC
  5
2426
  8
0
 10
510.0304465366085
 20
-12.70815827544243
 30
0.0
 40
0.5000000000000002
 50
0.0
 51
90.0
  0
LINE
  5
2427
  8
0
 10
488.4304465366081
 20
-12.5081582754425
 30
0.0
 11
488.4304465366081
 21
-6.508158275442497
 31
0.0
  0
LINE
  5
2428
  8
0
 10
488.4304465366081
 20
-12.5081582754425
 30
0.0
 11
504.5898902541721
 21
-12.5081582754425
 31
0.0
  0
ARC
  5
2429
  8
0
 10
505.0481478236675
 20
-12.70815827544243
 30
0.0
 40
0.5000000000000002
 50
90.0
 51
156.4218215217824
  0
LINE
  5
242A
  8
0
 10
510.0304465366085
 20
-12.20815827544243
 30
0.0
 11
505.0481478236675
 21
-12.20815827544243
 31
0.0
  0
ARC
  5
242B
  8
0
 10
510.0304465366085
 20
-6.308158275442565
 30
0.0
 40
0.5000000000000002
 50
270.0
 51
0.0
  0
ARC
  5
242C
  8
0
 10
505.0481478236675
 20
-6.308158275442565
 30
0.0
 40
0.5000000000000002
 50
203.5781784782176
 51
270.0
  0
LINE
  5
242D
  8
0
 10
510.0304465366085
 20
-6.808158275442565
 30
0.0
 11
505.0481478236675
 21
-6.808158275442565
 31
0.0
  0
LINE
  5
242E
  8
0
 10
488.4304465366081
 20
-6.508158275442497
 30
0.0
 11
504.5898902541721
 21
-6.508158275442497
 31
0.0
  0
LINE
  5
242F
  8
0
 10
494.1804465366081
 20
-31.2581582754425
 30
0.0
 11
488.5304465366085
 21
-31.2581582754425
 31
0.0
  0
LINE
  5
2430
  8
0
 10
488.5304465366085
 20
-31.2581582754425
 30
0.0
 11
488.5304465366085
 21
-37.0081582754425
 31
0.0
  0
POLYLINE
  5
2431
  8
0
 66
     1
 10
0.0
 20
0.0
 30
0.0
  0
VERTEX
  5
24D1
  8
0
 10
494.1804465366081
 20
-37.0081582754425
 30
0.0
  0
VERTEX
  5
24D2
  8
0
 10
494.1804465366081
 20
-31.2581582754425
 30
0.0
  0
SEQEND
  5
2503
  8
0
  0
LINE
  5
2432
  8
0
 10
505.5304465366085
 20
8.335538150328944
 30
0.0
 11
475.6472286236253
 21
8.335538150328944
 31
0.0
  0
ARC
  5
2433
  8
0
 10
475.6472286236253
 20
3.335538150328944
 30
0.0
 40
5.0
 50
90.0
 51
180.0
  0
ARC
  5
2434
  8
0
 10
505.5304465366085
 20
3.335538150328944
 30
0.0
 40
5.0
 50
0.0
 51
90.0
  0
LINE
  5
2435
  8
0
 10
470.6472286236253
 20
-37.0081582754425
 30
0.0
 11
470.6472286236253
 21
3.335538150328944
 31
0.0
  0
LINE
  5
2436
  8
0
 10
510.5304465366085
 20
-6.308158275442565
 30
0.0
 11
510.5304465366085
 21
3.335538150328944
 31
0.0
  0
LINE
  5
2437
  8
0
 10
510.5304465366085
 20
-3.343422473126964
 30
0.0
 11
510.5304465366085
 21
3.335538150328944
 31
0.0
  0
LINE
  5
2438
  8
0
 10
470.6472286236253
 20
-37.0081582754425
 30
0.0
 11
470.6472286236253
 21
3.335538150328944
 31
0.0
  0
LINE
  5
2439
  8
0
 10
472.5304465366085
 20
-53.39349129067301
 30
0.0
 11
470.5304465366085
 21
-53.39349129067301
 31
0.0
  0
LINE
  5
243A
  8
0
 10
472.5304465366085
 20
-59.59349129067306
 30
0.0
 11
470.5304465366085
 21
-59.59349129067306
 31
0.0
  0
LINE
  5
243B
  8
0
 10
472.5304465366085
 20
-59.59349129067306
 30
0.0
 11
472.5304465366085
 21
-53.39349129067301
 31
0.0
  0
LINE
  5
243C
  8
0
 10
510.5304465366085
 20
-46.49349129067309
 30
0.0
 11
510.5304465366085
 21
-66.49349129067309
 31
0.0
  0
LINE
  5
243D
  8
0
 10
470.5304465366085
 20
-59.59349129067306
 30
0.0
 11
470.5304465366085
 21
-66.49349129067309
 31
0.0
  0
LINE
  5
243E
  8
0
 10
510.5304465366085
 20
-46.49349129067309
 30
0.0
 11
470.5304465366085
 21
-46.49349129067309
 31
0.0
  0
LINE
  5
243F
  8
0
 10
510.5304465366085
 20
-66.49349129067309
 30
0.0
 11
470.5304465366085
 21
-66.49349129067309
 31
0.0
  0
LINE
  5
2440
  8
0
 10
470.5304465366085
 20
-46.49349129067309
 30
0.0
 11
470.5304465366085
 21
-53.39349129067301
 31
0.0
  0
LINE
  5
2441
  8
0
 10
521.3157346903636
 20
-6.408158275442474
 30
0.0
 11
519.3157346903636
 21
-6.408158275442474
 31
0.0
  0
LINE
  5
2442
  8
0
 10
521.3157346903636
 20
-12.60815827544252
 30
0.0
 11
519.3157346903636
 21
-12.60815827544252
 31
0.0
  0
LINE
  5
2443
  8
0
 10
521.3157346903636
 20
-12.60815827544252
 30
0.0
 11
521.3157346903636
 21
-6.408158275442474
 31
0.0
  0
LINE
  5
2444
  8
0
 10
559.3157346903636
 20
0.491841724557446
 30
0.0
 11
519.3157346903636
 21
0.491841724557446
 31
0.0
  0
LINE
  5
2445
  8
0
 10
559.3157346903636
 20
0.491841724557446
 30
0.0
 11
559.3157346903636
 21
-19.50815827544255
 31
0.0
  0
LINE
  5
2446
  8
0
 10
519.3157346903636
 20
0.491841724557446
 30
0.0
 11
519.3157346903636
 21
-6.408158275442474
 31
0.0
  0
LINE
  5
2447
  8
0
 10
521.3157346903636
 20
-6.408158275442474
 30
0.0
 11
519.3157346903636
 21
-6.408158275442474
 31
0.0
  0
LINE
  5
2448
  8
0
 10
521.3157346903636
 20
-12.60815827544252
 30
0.0
 11
519.3157346903636
 21
-12.60815827544252
 31
0.0
  0
LINE
  5
2449
  8
0
 10
521.3157346903636
 20
-12.60815827544252
 30
0.0
 11
521.3157346903636
 21
-6.408158275442474
 31
0.0
  0
LINE
  5
244A
  8
0
 10
519.3157346903636
 20
-12.60815827544252
 30
0.0
 11
519.3157346903636
 21
-19.50815827544255
 31
0.0
  0
LINE
  5
244B
  8
0
 10
559.3157346903636
 20
-19.50815827544255
 30
0.0
 11
519.3157346903636
 21
-19.50815827544255
 31
0.0
  0
POLYLINE
  5
244C
  8
HOLES
 66
     1
 10
0.0
 20
0.0
 30
0.0
 70
     1
  0
VERTEX
  5
24D3
  8
HOLES
 10
536.9157346903635
 20
-6.608158275442406
 30
0.0
  0
VERTEX
  5
24D4
  8
HOLES
 10
536.9157346903635
 20
-12.40815827544247
 30
0.0
  0
VERTEX
  5
24D5
  8
HOLES
 10
543.2157346903637
 20
-12.40815827544247
 30
0.0
  0
VERTEX
  5
24D6
  8
HOLES
 10
543.2157346903637
 20
-6.608158275442406
 30
0.0
  0
SEQEND
  5
2504
  8
HOLES
  0
POLYLINE
  5
244D
  8
HOLES
 66
     1
 10
0.0
 20
0.0
 30
0.0
  0
VERTEX
  5
24D7
  8
HOLES
 10
478.4304465366081
 20
-53.59349129067306
 30
0.0
  0
VERTEX
  5
24D8
  8
HOLES
 10
478.4304465366081
 20
-59.39349129067313
 30
0.0
  0
SEQEND
  5
2505
  8
HOLES
  0
LINE
  5
244E
  8
HOLES
 10
478.4304465366081
 20
-59.39349129067313
 30
0.0
 11
494.6304465366079
 21
-59.39349129067313
 31
0.0
  0
LINE
  5
244F
  8
HOLES
 10
478.4304465366081
 20
-53.59349129067306
 30
0.0
 11
494.6304465366079
 21
-53.59349129067306
 31
0.0
  0
POLYLINE
  5
2450
  8
HOLES
 66
     1
 10
0.0
 20
0.0
 30
0.0
  0
VERTEX
  5
24D9
  8
HOLES
 10
478.6304465366079
 20
-59.39349129067313
 30
0.0
  0
VERTEX
  5
24DA
  8
HOLES
 10
494.4304465366081
 20
-59.39349129067313
 30
0.0
  0
SEQEND
  5
2506
  8
HOLES
  0
POLYLINE
  5
2451
  8
HOLES
 66
     1
 10
0.0
 20
0.0
 30
0.0
  0
VERTEX
  5
24DB
  8
HOLES
 10
494.6304465366079
 20
-59.39349129067313
 30
0.0
  0
VERTEX
  5
24DC
  8
HOLES
 10
494.6304465366079
 20
-53.59349129067306
 30
0.0
  0
SEQEND
  5
2507
  8
HOLES
  0
POLYLINE
  5
2452
  8
HOLES
 66
     1
 10
0.0
 20
0.0
 30
0.0
  0
VERTEX
  5
24DD
  8
HOLES
 10
494.4304465366081
 20
-53.59349129067306
 30
0.0
  0
VERTEX
  5
24DE
  8
HOLES
 10
478.6304465366079
 20
-53.59349129067306
 30
0.0
  0
SEQEND
  5
2508
  8
HOLES
  0
CIRCLE
  5
2453
  8
HOLES
 10
455.6016093424314
 20
194.3932846904086
 30
0.0
 40
4.5
  0
CIRCLE
  5
2454
  8
HOLES
 10
455.6016093424314
 20
182.3932846904086
 30
0.0
 40
4.5
  0
CIRCLE
  5
2455
  8
HOLES
 10
455.6016093424314
 20
170.3932846904086
 30
0.0
 40
4.5
  0
CIRCLE
  5
2456
  8
HOLES
 10
455.6016093424314
 20
158.3932846904086
 30
0.0
 40
4.5
  0
CIRCLE
  5
2457
  8
HOLES
 10
455.6016093424314
 20
146.3932846904086
 30
0.0
 40
4.5
  0
CIRCLE
  5
2458
  8
HOLES
 10
439.7023323085052
 20
152.3932846904086
 30
0.0
 40
4.5
  0
CIRCLE
  5
2459
  8
HOLES
 10
439.7023323085052
 20
164.3932846904086
 30
0.0
 40
4.5
  0
CIRCLE
  5
245A
  8
HOLES
 10
439.7023323085052
 20
176.3932846904086
 30
0.0
 40
4.5
  0
CIRCLE
  5
245B
  8
HOLES
 10
439.7023323085052
 20
188.3932846904086
 30
0.0
 40
4.5
  0
CIRCLE
  5
245C
  8
HOLES
 10
769.5524727056381
 20
194.3932846904086
 30
0.0
 40
5.5
  0
CIRCLE
  5
245D
  8
HOLES
 10
769.5524727056381
 20
182.3932846904086
 30
0.0
 40
5.5
  0
CIRCLE
  5
245E
  8
HOLES
 10
769.5524727056381
 20
170.3932846904086
 30
0.0
 40
5.5
  0
CIRCLE
  5
245F
  8
HOLES
 10
769.5524727056381
 20
158.3932846904086
 30
0.0
 40
5.5
  0
CIRCLE
  5
2460
  8
HOLES
 10
769.5524727056381
 20
146.3932846904086
 30
0.0
 40
5.5
  0
CIRCLE
  5
2461
  8
HOLES
 10
785.4517497395643
 20
152.3932846904086
 30
0.0
 40
5.5
  0
CIRCLE
  5
2462
  8
HOLES
 10
785.4517497395643
 20
164.3932846904086
 30
0.0
 40
5.5
  0
CIRCLE
  5
2463
  8
HOLES
 10
785.4517497395643
 20
176.3932846904086
 30
0.0
 40
5.5
  0
CIRCLE
  5
2464
  8
HOLES
 10
785.4517497395643
 20
188.3932846904086
 30
0.0
 40
5.5
  0
VIEWPORT
  5
AD1
 67
     1
  8
0
 10
0.0
 20
0.0
 30
0.0
 40
12.82235294117647
 41
6.720000000000001
 68
     1
 69
     1
1001
ACAD
1000
MVIEW
1002
{
1070
    16
1010
0.0
1020
0.0
1030
0.0
1010
0.0
1020
0.0
1030
1.0
1040
0.0
1040
6.720000000000001
1040
5.681323529411766
1040
3.693529411764708
1040
50.0
1040
0.0
1040
0.0
1070
    16
1070
   100
1070
     0
1070
     3
1070
     0
1070
     0
1070
     0
1070
     0
1040
0.0
1040
0.0
1040
0.0
1040
0.5
1040
0.5
1040
0.0
1040
0.0
1070
     0
1002
{
1002
}
1002
}
  0
VIEWPORT
  5
AD2
 67
     1
  8
0
 10
5.25
 20
3.5
 30
0.0
 40
8.4
 41
5.600000000000001
 68
     2
 69
     2
1001
ACAD
1000
MVIEW
1002
{
1070
    16
1010
0.0
1020
0.0
1030
0.0
1010
0.0
1020
0.0
1030
1.0
1040
0.0
1040
1225.913211792441
1040
485.5477727323416
1040
47.761248583873
1040
50.0
1040
0.0
1040
0.0
1070
     0
1070
   100
1070
     0
1070
     3
1070
     0
1070
     0
1070
     0
1070
     0
1040
0.0
1040
0.0
1040
0.0
1040
0.5
1040
0.5
1040
0.0
1040
0.0
1070
     0
1002
{
1002
}
1002
}
  0
ENDSEC
  0
EOF
